1565 VISITAS

About a girl

Nirvana

            
                               


[Intro/Verse/Outro]

e|-----0---2-2-0-| 
B|-----0---2-2-0-|
G|-----0---0-0-0-|   
D|-2-2---0-0-0---|  
A|-2-2---2-2-2---|
E|-0-0---3-3-3---|


[Chorus]

                 
e|------------------|-----|       |------------------------|
B|------------------|-----|       |------------------------| 
G|-6-6--------------|-----|       |-----9-9-9-------5--5-5-| 
D|-6-6-6-6--4-4-X-4-|-4-4-| X 2   |-2-2-9-9-9-7-7-X-5--5-5-| 
A|-4-4-6-6--4-4-X-4-|-4-4-|       |-2-2-7-7-7-7-7-X-3--3-3-|   
E|-----4-4--2-2-X-2-|-2-2-|       |-0-0-------5-5-X--------|    



e|-------------------------|
B|-------------------------|
G|-6-6-0-------------------|
D|-6-6-0-6-6-0-4-4--4--4-4-|
A|-4-4-0-6-6-0-4-4--4--4-4-|
E|-------4-4-0-2-2--2--2-2-|

e|----------------------|
B|----------------------|
G|-----0-9-9-9---5--5-5-|
D|-2-2-0-9-9-9-7-5--5-5-|
A|-2-2-0-7-7-7-7-3--3-3-|
E|-0-0---------5--------|



[Solo]

e|-------------------------------|
B|-------------------------------|
G|------------------------12--12-|
D|-------5h7-7-7/9-9-9/12---12---|
A|---5h7-------------------------|
E|-0-----------------------------|