1532 VISITAS

Adios

Gustavo Cerati

            
                               

INTRO X2

E|--------------0------------2-3-2-------3-----|
B|-----------------2-0-------3-3-3-3-----3-----|
G|-----------0-----2-2--2----------------------|
D|--------2---------------0------------0-------|
A|--------2------------------------------------|
E|--2-0-------------------------------3--------|

E|------3--------|
B|--2---3--------|
G|--2---0--------|
D|--2---0--------|
A|--0---2--------|
E|------3--3-----|


VERSO

Em     A        D         G    A G
 Suspiraban lo mismo los dos,
Em          A             D       G    A G
 y hoy son parte de una lluvia lejos.
Em         A         D           G    A G
 No te confundas no sirve el rencor,
Em      A          D         G    A G
 son espasmos despues del adios.


CORO

Bm         A              G               D
 Pones canciones tristes para sentirte mejor.
A               Bm
 Tu esencia es mas visible,
G
 del mismo dolor
      Gm               Em    A
 vendra un nuevo amanecer
D G  A G
uuuh.



VERSO

Em           A        D     G    A G
 Tal vez colmaban la necesidad,
Em           A           D         G    A G
 pero hay vacios que no pueden llenar.
Em       A        D      G    A G
 No conocian la profundidad,
Em             A        D      G    A G
 hasta que un dia no dio para mas.


CORO

Bm        A         G                 D
 Quedabas esperando ecos que no volveran.
A             Bm
 Flotando entre rechazos,
G
 del mismo dolor
      Gm               Em    A
 vendra un nuevo amanecer
D G  A G
uuuh


PUENTE


Bm          Bm/A# (Bm7M) 
 Separarse de la especie
  A            E  G         D           A
 por algo superior no es soberbia, es amor

G         D           A   E
 no es soberbia, es amor
G        Gm                 Em A
Poder decir adios es crecer
D G  A G
uuuh


 A G (x10)