1090 VISITAS

All Nightmare Long

Metallica

            
                               


INTRO:

(PARTE 1)

  X2
E|--------------------------------------------------------
B|--------------------------------------------------------
G|--------------------------------------------------------
D|-----5-6~-5------5-----5------------5-6~-----5-----5----
A|---5-----------5---------6--------5--------5---------6--
D|-0-----------0-----3-0----------0--------0-----3-0------


E|---------------|--------------|---------------------
B|---------------|--------------|---------------------
G|---------------|--------------|---------------------
D|---------------|--------------|---------------------
A|-0--6--5--0-0--|-0--6--5--0-0-|--0--6--5--0-0-0-----
D|-0--6--5--0-0--|-0--6--5--0-0-|--0--6--5--0-0-0-----


E|----------|-------|----------|----------------------
B|----------|-------|----------|----------------------
G|----------|-------|----------|----------------------
D|----------|-------|----------|----------------------
A|--0--6--5-|-0-0-0-|--0-0-0---|--6-5--0---6-5--------
D|--0--6--5-|-0-0-0-|--0-0-0---|--6-5--0---6-5--------


  x12
E|-----------|------------------------------------------
B|-----------|------------------------------------------
G|-----------|------------------------------------------
D|-----------|------------------------------------------
A|-----------|------------------------------------------
D|---0-0-0-0-|--12/-11/-10/-9/-8/-7/-6/-5/-4/-3/-2/-1/--



  x4
E|-----------------------------------------------------
B|-----------------------------------------------------
G|-----------------------------------------------------
D|-----------------------------------------------------
A|-----------------------------------------------------
D|-0-0-0---0--0--0--0--0--0--0--0--0--0--0--0--0--0----


E|-----------------------------------------------------
B|-----------------------------------------------------
G|-----------------------------------------------------
D|-----------------------------------------------------
A|-------------------1-1-----1-1-----------------------
D|--0-0-0---0--0--0--1-1-0-0-1-1-0--2-2-2-3-3-3--------

  x6
E|-----------------------------------------------------
B|-----------------------------------------------------
G|-----------------------------------------------------
D|-----------------------------------------------------
A|-------------------1-1-----1-1-----------------------
D|--1-0-0---0--0--0--1-1-0-0-1-1-0--2-2-2-3-3-3--------

E|-----------------------------------------------------
B|-----------------------------------------------------
G|-----------------------------------------------------
D|-----------------------------------------------------
A|-------------------1-1-----1-1-----------------------
D|--1-0-0---0--0--0--1-1-0-0-1-1-----------------------


                         x3
E|-------------------|---------------------------
B|-------------------|---------------------------
G|-------------------|---------------------------
D|-------------------|---------------------------
A|--3-0-5-0-3-0-5-0--|-0--0--3-------------------
D|--3-0-5-0-3-0-5-0--|-0--0--3---0-0-0--0-0-0----

                         x3
E|---------------------|-------------------------------
B|---------------------|-------------------------------
G|---------------------|-------------------------------
D|--7-7---5-5--10-10/--|-------------------------------
A|--5-5---3-3---8--8/--|--0--0--3----------------------
D|---------------------|--0--0--3---0-0-0--0-0-0-------

E|---------------------|-----------------
B|---------------------|-----------------
G|---------------------|-2--3---6-7------
D|--7-7---5-5--10-10/--|-2--3---6-7------
A|--5-5---3-3---8--8/--|-0--1---4-5------
D|---------------------|-----------------

E|--------------------------------------------------------
B|--------------------------------------------------------
G|--------------------------------------------------------
D|--------------------------------------------------------
A|--8--8-8-8--8-8-8--8-8-8--8-8--10-10-10-10-10-10-10-10--
D|--------------------------------------------------------


  x3
E|------------------------|----------------------
B|------------------------|----------------------
G|------------------------|----------------------
D|------------------------|---7-7---5-5--10-10/--
A|-0--0--3----------------|---5-5---3-3---8--8/--
D|-0--0--3---0-0-0--0-0-0-|----------------------

E|--------------|-----------------------
B|--------------|-----------------------
G|-2--3---6-7---|-----------------------
D|-2--3---6-7---|-----------------------
A|-0--1---4-5---|--8-8-8-8--8-8-8-8--8--
D|--------------|-----------------------


////////////////////////////////////////////////////////////////

(PARTE 1)


GUITARRA 1
 
  X3
E|----------------------------------|------------------------
B|----------------------------------|------------------------
G|----------------------------------|------------------------
D|----------------------------------|--------2---------------
A|----------------------------------|--2-3-5---5-3--2h3p2p0--
D|-2-2-2-2-2-2-2-2-2-2-2-2-2-2-2-2--|------------------------

  X3
E|----------------------------------|------------------------
B|----------------------------------|------------------------
G|----------------------------------|------------------------
D|----------------------------------|--------2---------------
A|----------------------------------|--2-3-5---5-3--2h3p2p0--
D|-2-2-2-2-2-2-2-2-2-2-2-2-2-2-2-2--|------------------------
 
                            x4   
E|----|-------|------|-----|---------------
B|----|-------|------|-----|---------------
G|--4-|--4-5--|-5-4--|-4-5-|--4------------
D|----|-------|------|-----|--4------------
A|--2-|--2-3--|-3-2--|-2-3-|--2--2--3------
D|----|-------|------|-----|-----2--3------


E|--------------------------------------------------
B|--------------------------------------------------
G|--------------------------------------2--3---6-7--
D|--------------------------------------2--3---6-7--
A|--2-2-2-2-2-0-0-0--2-2-2-2-2-0-0-0----0--1---4-5--
D|--2-2-2-2-2-0-0-0--2-2-2-2-2-0-0-0----------------


E|-------------------------------
B|-------------------------------
G|-------------------------------
D|-------------------------------
A|--8-8-8-8--8-8-8-8--8----------
D|-------------------------------

  x3
E|------------------------|----------------------
B|------------------------|----------------------
G|------------------------|----------------------
D|------------------------|---7-7---5-5--10-10/--
A|-0--0--3----------------|---5-5---3-3---8--8/--
D|-0--0--3---0-0-0--0-0-0-|----------------------


E|--------------|-----------------------
B|--------------|-----------------------
G|-2--3---6-7---|-----------------------
D|-2--3---6-7---|-----------------------
A|-0--1---4-5---|--8-8-8-8--8-8-8-8--8--
D|--------------|-----------------------



GUITARRA 2




E|------------------------------------------
B|------------------------------------------
G|------------------------------------------
D|---9--------------------------------------
A|------8---7---5---2-----------------------
D|---------------------3---2----------------




E|--------------------------------------------------------
B|--------------------------------------------------------
G|--------------------------------------------------------
D|-9-9-9-9-9-9--------------------------------------------
A|-------------8-8-8-8-8-8-7-7-7-7-5-5-5-5-5-5------------
D|--------------------------------------------------------

E|--------------------------------------------------------
B|--------------------------------------------------------
G|--------------------------------------------------------
D|--------------------------------------------------------
A|-2-2-2-2-2-2--------------------------------------------
D|-------------3-3-3-3-2-2-2-2-2-2-2-2-2-2-2-2-2-2-2-2----

E|------------------------
B|------------------------
G|------------------------
D|--------2---------------
A|--2-3-5---5-3--2h3p2p0--
D|------------------------
 

  X3
E|----------------------------------|------------------------
B|----------------------------------|------------------------
G|----------------------------------|------------------------
D|----------------------------------|--------2---------------
A|----------------------------------|--2-3-5---5-3--2h3p2p0--
D|-2-2-2-2-2-2-2-2-2-2-2-2-2-2-2-2--|------------------------


  x2
E|--------------------------------------------
B|--------------------------------------------
G|--------------------------------------------
D|--------------------------------------------
A|-2-2-2-2-2-2-2-2-2-2-2-2-2-2-2-2------------
D|--------------------------------------------

  x2
E|--------------------------------------------
B|--------------------------------------------
G|--------------------------------------------
D|--------------------------------------------
A|--------------------------------------------
D|--3-3-3-3-3-3-3-3-3-3-3-3-3-3-3-3-----------

E|--------------------------------------------
B|--------------------------------------------
G|--------------------------------------------
D|--------------------------------------------
A|--2-2-2-2-2-2-2-2-2-2-2-2-2-2-2-2-----------
D|--------------------------------------------

E|--------------------------------------------
B|--------------------------------------------
G|--------------------------------------------
D|--------------------------------------------
A|--------------------------------------------
D|--2-2-2-2-2-2-2-2-2-2-2-2-2-2-2-2-----------

E|--------------------------------------------
B|--------------------------------------------
G|--------------------------------------------
D|--------------------------------------------
A|--2-2-2-2-2-2-2-2-2-2-2-2-2-2-2-2-----------
D|--------------------------------------------


E|--------------------------------------------
B|--------------------------------------------
G|--------------------------------------------
D|--------------------------------------------
A|--------------------------------------------
D|--2-2-2-2-2-2-2-2-2-2-2-2-2-2-2-2-----------

  x4
E|--------------------------------------------
B|--------------------------------------------
G|--------------------------------------------
D|--------------------------------------------
A|--2-2-2-2-2-2-------------------------------
D|--------------2-2-2-2-2-2-3-3-3-3-----------


E|--------------------------------------------------
B|--------------------------------------------------
G|--------------------------------------2--3---6-7--
D|--------------------------------------2--3---6-7--
A|--2-2-2-2-2-0-0-0--2-2-2-2-2-0-0-0----0--1---4-5--
D|--2-2-2-2-2-0-0-0--2-2-2-2-2-0-0-0----------------


E|-------------------------------
B|-------------------------------
G|-------------------------------
D|-------------------------------
A|--8-8-8-8--8-8-8-8--8----------
D|-------------------------------

  x3
E|------------------------|----------------------
B|------------------------|----------------------
G|------------------------|----------------------
D|------------------------|---7-7---5-5--10-10/--
A|-0--0--3----------------|---5-5---3-3---8--8/--
D|-0--0--3---0-0-0--0-0-0-|----------------------


E|--------------|-----------------------
B|--------------|-----------------------
G|-2--3---6-7---|-----------------------
D|-2--3---6-7---|-----------------------
A|-0--1---4-5---|--8-8-8-8--8-8-8-8--8--
D|--------------|-----------------------



////////////////////////////////////////////////////////////////


CORO:

REPETIR 4X

  X3
E|--------------------|----------------------------
B|--------------------|----------------------------
G|-7-7--10-10--9-9--7-|----------------------------
D|--------------------|-5--5---5--5--2--2----------
A|-5-5---8--8--7-7--5-|-3--3---2--2--0--0----------
D|-0-0---0--0--0-0--0-|----------------------------

FINAL

E|-------------------------------------------------
B|-------------------------------------------------
G|-------------------------------------------------
D|-------------------------------------------------
A|-1----1----1-------------------------------------
D|-1----1----1-------------------------------------



////////////////////////////////////////////////////////////////


VERSO 2

  x3
E|--------------------------------------------------------
B|--------------------------------------------------------
G|--------------------------------------------------------
D|--------------------------------------------------------
A|-------------------1-1-----1-1--------------------------
D|--1-0-0---0--0--0--1-1-0-0-1-1-0--2-2-2-3-3-3-----------

E|--------------------------------------------------------
B|--------------------------------------------------------
G|--------------------------------------------------------
D|--------------------------------------------------------
A|-------------------1-1-----1-1--------------------------
D|--1-0-0---0--0--0--1-1-0-0-1-1--------------------------

                         x3
E|-------------------|---------------------------
B|-------------------|---------------------------
G|-------------------|---------------------------
D|-------------------|---------------------------
A|--3-0-5-0-3-0-5-0--|-0--0--3-------------------
D|--3-0-5-0-3-0-5-0--|-0--0--3---0-0-0--0-0-0----

                         x3
E|---------------------|---------------------------------
B|---------------------|---------------------------------
G|---------------------|---------------------------------
D|--7-7---5-5--10-10/--|---------------------------------
A|--5-5---3-3---8--8/--|--0--0--3------------------------
D|---------------------|--0--0--3---0-0-0--0-0-0---------

E|---------------------|-----------------
B|---------------------|-----------------
G|---------------------|-2--3---6-7------
D|--7-7---5-5--10-10/--|-2--3---6-7------
A|--5-5---3-3---8--8/--|-0--1---4-5------
D|---------------------|-----------------

E|-------------------------------
B|-------------------------------
G|-------------------------------
D|-------------------------------
A|--8-8-8-8--8-8-8-8--8----------
D|-------------------------------


RESTO IGUAL AL VERSO ANTERIOR.

//////////////////////////////////////

CORO (IGUAL AL CORO ANTERIOR)

//////////////////////////////////////

SOLO 1


BASE


E|------------------------------------------
B|------------------------------------------
G|------------------------------------------
D|----------------------------------0-------
A|----------------------------------0-------
D|--7-7-7-7-3-3-3-3-5-5-5-5-1-1-1-1-0-------

  X4
E|---------------|--------------------------
B|---------------|--------------------------
G|---------------|--------------------------
D|-----------7---|---3--2--1----------------
A|-----------7---|---3--2--1----------------
D|-0-0-0-0-0-7---|---3--2--1----------------

  X8
E|------------------------------------------
B|------------------------------------------
G|------------------------------------------
D|-----------7--7--7------------3--2--1-----
A|-----------7--7--7------------3--2--1-----
D|-0-0-0-0-0-7--7--7--3-3-3-3-3-3--2--1-----


E|-----------------|-------------------------
B|-----------------|-------------------------
G|------4--3-------|-----4--3----------------
D|------4--3-------|-----4--3------2--1--0---
A|-2----2--1----3--|-2---2--1---3--2--1--0---
D|-2--0------0--3--|-2-0------0-3--2--1--0---

E|-----------------|-------------------------
B|-----------------|-------------------------
G|------4--3-------|-----4-------------------
D|------4--3-------|-----4-------------------
A|-2----2--1----3--|-2---2-------------------
D|-2--0------0--3--|-2-0---------------------


E|----------------------------------|--------------
B|----------------------------------|--------------
G|----------------------------------|--------------
D|----------------------------------|--------------
A|----------------------------------|------------7-
D|--7-7-7-7-3-3-3-3-5-5-5-5-1-1-1-1-|--0-0-0-0-0-7-


  X2
E|-------------------------------------------------
B|-------------------------------------------------
G|-------------------------------------------------
D|-------------------------------------------------
A|-----------7/------------7/--7/------------------
D|-0-0-0-0-0-7/--0-0-0-0-0-7/--7/------------------


SOLO 1


E|--------------------------------------------------------
B|--------------------------------------------------------
G|--------------------------------------------------------
D|--------------------------------------------------------
A|--------------------------------------------
D|--------------------------------------------------


  X8
E|---------------------------------------
B|---------------------------------------
G|---------------------------------------
D|--7---8-7---7-----5--------------------
A|----5-----5---8-7---8-7-6-5------------
D|---------------------------------------


E|----------------------------------------------------
B|----------------------------------------------------
G|----------------------------------------------------
D|--/12-12-12-12-12-12-12-12-/12-12-12-/12-12-12------
A|----------------------------------------------------
D|----------------------------------------------------

E|----------------------------------------------------
B|----------------------------------------------------
G|--/12-/11-/10-/9-/8-/7-/6---------------------------
D|----------------------------------------------------
A|----------------------------------------------------
D|----------------------------------------------------


  x4
E|-----------------------1----------------------------
B|-----------------------1----------------------------
G|--2p0---2p0-2p0---2p0-------------------------------
D|----------------------------------------------------
A|----------------------------------------------------
D|----------------------------------------------------

  x2
E|-------------------------------------------
B|-------------------------------------------
G|--4p2---2-4p2-4p2---2-4p2-4p2---2----------
D|------4-----------4-----------4------------
A|-------------------------------------------
D|-------------------------------------------

  x2
E|-------------------------------------------
B|-------------------------------------------
G|-4p2---2-4p2---2-4p2---2-4p2---2-----------
D|-----4-------4-------4-------4-------------
A|-------------------------------------------
D|-------------------------------------------

  x2
E|-------------------------------------------
B|-------------------------------------------
G|--4p2---2-4p2-4p2---2-4p2-4p2---2----------
D|------4-----------4-----------4------------
A|-------------------------------------------
D|-------------------------------------------

E|----------------------------------------------------
B|--5-2-0-0-6-3-0-0-7-4-0-0-8-5-0-0-9-6-0-0-10-7-0-0--
G|----------------------------------------------------
D|----------------------------------------------------
A|----------------------------------------------------
D|----------------------------------------------------

E|----------------------------------------------------
B|--11-8-0-0-12-9-0-0-13-10-0-0-14-11-0-0-15-12-0-0---
G|----------------------------------------------------
D|----------------------------------------------------
A|----------------------------------------------------
D|----------------------------------------------------

E|----------------------------------------------------
B|-16-13-0-0-17-14-0-0-18-15-0-0-19-16-0-0-20-17-0-0--
G|----------------------------------------------------
D|----------------------------------------------------
A|----------------------------------------------------
D|----------------------------------------------------


E|-----------------------------------------------------
B|--21-18-0-0-22-19-0-0-22-19-0-0-22-19-0-0-22-19-0-0--
G|-----------------------------------------------------
D|-----------------------------------------------------
A|-----------------------------------------------------
D|-----------------------------------------------------

E|-----------------------------------------------------
B|-22-19-0-0-22-19-0-0---------------------------------
G|-------------------------v-v-v-v-v-v-v-v-v-v-v-------
D|-----------------------------------------------------
A|-----------------------------------------------------
D|-----------------------------------------------------


E|-----------------------------------------------------
B|-----------13-----13-13-----------13-----13-13-------
G|-----------12-----12-12-----------12-----12-12-------
D|-------/14----/14------------/14----/14--------------
A|-----------------------------------------------------
D|--20/------------------------------------------------



///////////////////////////////////////////////////////7


INTERLUDE


  X2
E|--------------------------------				|					
B|--------------------------------				|
G|--------------------------------				|
D|--7-8-7------7-8-7--------------				|  
A|--5-5-5--8---5-5-5--8-5---------				| REPETIR
D|---------0-0--------0-0-0-0-0-0-				| X2
								|
E|---------------------------------------------------------	|
B|---------------------------------------------------------	|
G|---------------------------------------------------------	|
D|--7-8-7-------7-7-8-7---------6-6-7-6--2-2-3-2-----------	|
A|--5-5-5--8-5--8-8-8-8-8-8-8-8-7-7-7-7--3-3-3-3-3-3-3-0---	|
D|---------0-0----------7-7-7-7------------------2-2-2-0---	|

  X4
E|--------------------------------------------
B|--------------------------------------------
G|--------------------------------------------
D|--------------------------------------------
A|--------------------------------------------
D|-0-0-0-0-0-0-0-0-0-0-0-0-0-0-0-0------------

  X3
E|--------------------------------------------
B|--------------------------------------------
G|--------------------------------------------
D|--------------------------------------------
A|--------------------------------------------
D|-2-2-2-2-2-2-2-2-2-2-2-2-2-2-2-2------------

E|---------------------------------------------
B|---------------------------------------------
G|---------------------------------------------
D|---------------------------------------------
A|---------------------------------------------
D|--9/---5---7--3------------------------------

///////////////////////////////////////////////////////////////


SOLO 2


BASE


E|-----------|------------|------------|------------|--------
B|-----------|------------|------------|------------|--------
G|-----------|------------|----------5-|------------|--------
D|-----------|------------|----------5-|------------|--------
A|---------2-|----------3-|--3-3-3-3-3-|----------5-|--5-4-3-
D|-2-2-2-2-2-|--3-3-3-3-3-|------------|--5-5-5-5-5-|--5-4-3-

E|--------------------------------------------------------
B|--------------------------------------------------------
G|--------------------------------------------------------
D|--------------------------------------------------------
A|---------2----------2---------2---------2---------------
D|-2-2-2-2-2--2-2-2-2-2-2-2-2-2-2-2-2-2-2-2---------------


SOLO 2



E|---------------------------------------------------------
B|---------------------------------------------------------
G|-3p2p0-----3p2p0------3p2p0---3p2p0----3p2p0-----3p2p0---
D|-------2---------2----------2-------2--------2---------2-
A|---------------------------------------------------------
D|---------------------------------------------------------

E|----------------------------------------------------------
B|----------------------------------------------------------
G|-3p2p0------3p2p0-----3p2p0---3p2p0----3p2p0-----3p2p0----
D|-------3----------3---------3-------3--------3---------3--
A|----------------------------------------------------------
D|----------------------------------------------------------


E|------------------------------------------------------------------
B|------------------------------------------------------------------
G|-5p3p0-0-5p3p0-0-5p3p0-0-5p3p0-0-5p3p0-0-5p3p0-0-5p3p0-0-5p3p0-0--
D|------------------------------------------------------------------
A|------------------------------------------------------------------
D|------------------------------------------------------------------

E|------------------------------------------------------------------
B|------------------------------------------------------------------
G|------------------------------------------------------------------
D|-5p3p0-0-5p3p0-0-5p3p0-0-5p3p0-0-5p3p0-0-5p3p0-0-5p3p0-0-5p3p0-0--
A|------------------------------------------------------------------
D|------------------------------------------------------------------


E|-------------------------------------------------------------
B|-------------------------------------------------------------
G|-3p2p0----3p2p0----3p2p0---3p2p0---3p2p0---3p2p0---3p2p0-----
D|-------2--------2--------2-------2-------2-------2-------2---
A|-------------------------------------------------------------
D|-------------------------------------------------------------


E|-------------------------------------------------------------
B|-------------------------------------------------------------
G|--3p2p0---3p2p0--3p2p0---3p2p0--3p2p0--3p2p0---3p2p0---3p2p0-
D|--------3------3-------3-------3-----3-------3-------3-------
A|-------------------------------------------------------------
D|-------------------------------------------------------------


E|------------------------------------------------------------------
B|------------------------------------------------------------------
G|-5p3p0-0-5p3p0-0-5p3p0-0-5p3p0-0-5p3p0-0-5p3p0-0-5p3p0-0-5p3p0-0--
D|------------------------------------------------------------------
A|------------------------------------------------------------------
D|------------------------------------------------------------------

E|------------------------------------------------------------------
B|------------------------------------------------------------------
G|------------------------------------------------------------------
D|-5p3p0-0-5p3p0-0-5p3p0-0-5p3p0-0-5p3p0-0-5p3p0-0-5p3p0-0-5p3p0-0--
A|------------------------------------------------------------------
D|------------------------------------------------------------------


E|---------------------------------------
B|--10p8---8-9p8-9p8---8-9p8-9p8---8-----
G|-------9-----------9-----------9-------
D|---------------------------------------
A|---------------------------------------
D|---------------------------------------

E|-------------------------12-12-12-12-14-14-14-15-15-15--
B|-12-12-12-12-15-15-15-15--------------------------------
G|--------------------------------------------------------
D|--------------------------------------------------------
A|--------------------------------------------------------
D|--------------------------------------------------------



E|--17-17-17-19-------------
B|--------------------------
G|--------------------------
D|--------------------------
A|--------------------------
D|--------------------------


///////////////////////////////////////////////////////////

PARTE FINAL


  X4
E|--------------------------------------------
B|--------------------------------------------
G|--------------------------------------------
D|--------------------------------------------
A|--------------------------------------------
D|--0-0-0-0-0-0-0-0-0-0-0-0-0-0-0-0-----------



E|---------------------------------------------------	|
B|---------------------------------------------------	|
G|---------10-9-8-7-8-9------------------------------	|
D|---------10-9-8-7-8-9------------------------------	|
A|----------8-7-6-5-6-7------------------------------	| 
D|-0-0-0-0--8-7-6-5-6-7-0-0-0-0-0-0-0-0-0-0-0-0-0-0--	| REPETIR
							| X2
E|---------------------------------------------------	|
B|---------------------------------------------------	|
G|---------------------------------------------------	|
D|---------------------------------------------------	|
A|---------------------------------------------------	|
D|--0-0-0-0-0-0-0-0-0-0-0-0-0-0-0-0------------------	|

E|---------------------------------------------------
B|---------------------------------------------------
G|---------10-9-8-7-8-9---7-6-4-4-5------------------
D|---------10-9-8-7-8-9---7-6-4-4-5------------------
A|----------8-7-6-5-6-7---5-4-3-2-3------------------
D|-0-0-0-0--8-7-6-5-6-7---5-4-3-2-3------------------


  X3
E|-------------------------------------------------
B|-------------------------------------------------
G|-------------------------------------------------
D|-------------------------------------------------
A|-------------------------------------------------
D|--0-0-0-0-0-0-0-0-0-0-0-0-0-0-0-0----------------


E|-----------------------------------------------
B|-----------------------------------------------
G|-----------------------------------------------
D|-----------------------------------------------
A|------------------3-2-1------------------------
D|--0-0-0-0-0-0-0-0-3-2-1------------------------

  X1
E|--------------------------------------------	|
B|--------------------------------------------	|
G|--------------------------------------------	|
D|--------------------------------------------	|
A|--------------------------------------------	|
D|--0-0-0-0-0-0-0-0-0-0-0-0-0-0-0-0-----------	| REPETIR
 						| X4
E|--------------------------------------------	|
B|--------------------------------------------	|
G|--------------------------------------------	|
D|--------------------------------------------	|
A|------------------3-2-1---------------------	|
D|--0-0-0-0-0-0-0-0-3-2-1---------------------	|

E|------------------------------------
B|------------------------------------
G|------------------------------------
D|------------------------------------
A|------------------------------------
D|--0-0-0-0-0-0-0-0-0-0-0-0-0-0-0-0---

E|----------------------
B|----------------------
G|----------------------
D|----------------------	
A|------------------3-2-	
D|--0-0-0-0-0-0-0-0-3-2-

//////////////////////////////////

REPETIR CORO

/////////////////////////////////

  X2
E|----------------------------------------------
B|----------------------------------------------
G|----------------------------------------------
D|----------------------------------------------
A|-------------------1-1-----1-1----------------
D|--1-0-0---0--0--0--1-1-0-0-1-1-0--2-2-2-3-3-3-

  X4            X3
E|------------|---------------------------------
B|------------|---------------------------------
G|------------|---------------------------------
D|------------|---------------------------------
A|--0-----5-1-|--3---5---3---5---5-5------------
D|--0-----5-1-|--3-0-5-0-3-0-5-0-0-0------------

E|-------------------------------
B|-------------------------------
G|-------------------------------
D|-------------------------------
A|--3---5---3---5----------------
D|--3-0-5-0-3-0-5-0--------------

  X4
E|-----------------|---------------------------
B|-----------------|---------------------------
G|-----------------|---------------------------
D|-------------5---|------5--6-5-------5-------
A|-5-------------6-|----5------------5---0-----
D|-0--0--3--0------|--0------------0-----0-----