1270 VISITAS

BYOB

System of a Down

            
                               


AFINACION:
Db Ab Db Gb Bb Eb
INTRO:

E|---------------------------------------------------
B|---------------------------------------------------
G|---------------------------------------------------   (3x)
D|-7p0-0-0-0-0-0-0-7p0-0-8p0-0-7p0-------------------
A|---------------------------------------------------
D|---------------------------------------------------

E|---------------------------------------------------
B|---------------------------------------------------
G|---------------------------------------------------   (3x)
D|-7p0-0-8p0-0-7p0-7p0-0-8p0-0-7p0-------------------
A|---------------------------------------------------
D|---------------------------------------------------

E|---------------------------------------------------
B|---------------------------------------------------
G|---------------------------------------------------
D|---------------------------------------------------
A|---------------------------------------------------
D|--0-7p0-0-8p0-0-7p0-0-8p0-0-7p0----0-7p0-0-8p0-0---

E|---------------------------------------------------
B|---------------------------------------------------
G|---------------------------------------------------
D|-9---10--12----------------------------------------
A|-7----8--10----------------------------------------
D|---------------------------------------------------

E|---------------------------------------------------
B|---------------------------------------------------
G|---------------------------------------------------
D|---------------------------------------------------
A|---------------------------------------------------
D|--0-7p0-0-8p0-0-7p0-0-8p0-0-7p0---0-7p0-0-8p0-0---

E|---------------------------------------------------
B|---------------------------------------------------
G|---------------------------------------------------
D|-12---10--9----------------------------------------
A|-10----8--7----------------------------------------
D|---------------------------------------------------


--/////////////////////////////////////////////////////

VERSO 1

Why do they always send the poor?


		Barbarisms by Barbaras
E|---------------------------------------------------
B|---------------------------------------------------
G|---------------------------------------------------
D|-----------------------------------------10--------
A|------------------------------------------8--------
D|-7-0-0-8-0-0-7-0-0-8-0-0-7-0-0-8-0-0-7-------------


                  With pointed heels
E|---------------------------------------------------
B|---------------------------------------------------
G|---------------------------------------------------
D|------------------------12----10---9---------------
A|------------------------10-----8---7---------------
D|-7-0-0-8-0-0-7-0-0-8-0-----------------------------



		Victorious victories kneel
E|---------------------------------------------------
B|---------------------------------------------------
G|---------------------------------------------------
D|-----------------------------------------10--------
A|------------------------------------------8--------
D|-7-0-0-8-0-0-7-0-0-8-0-0-7-0-0-8-0-0-7-------------

               For brand new spankin' deals
E|---------------------------------------------------
B|---------------------------------------------------
G|---------------------------------------------------
D|------------------------12----10---9---------------
A|------------------------10-----8---7---------------
D|-7-0-0-8-0-0-7-0-0-8-0-----------------------------




		Marching forward hypocritic and
E|---------------------------------------------------
B|---------------------------------------------------
G|---------------------------------------------------
D|---------------------------------------------------
A|---------------------------------------------------
D|-7-0-0-8-0-0-7-0-0-8-0-0-7-0-0-8-0-0-7-0-0-8-0-0---

			Hypnotic computers
E|---------------------------------------------------
B|---------------------------------------------------
G|---------------------------------------------------
D|----------------------------------------10---------
A|-----------------------------------------8---------
D|-7-0-0-8-0-0-7-0-0-8-0-0-7-0-0-8-0-0-7-------------


                   You depend on our protection
E|---------------------------------------------------
B|---------------------------------------------------
G|---------------------------------------------------
D|---------------------------------------------------
A|---------------------------------------------------
D|-7-0-0-8-0-0-7-0-0-8-0-0-7-0-0-8-0-0-7-0-0-8-0-0---
	
	Yet you feed us lies from the tablecloth
E|---------------------------------------------------
B|---------------------------------------------------
G|---------------------------------------------------
D|-------------------------5----3--------------------
A|-------------------------5----3--------2-3-2-------
D|-7-0-0-8-0-0-7-0-0-8-0---5----3--------2-3-2-------

/////////////////////////////////////////////////////////


PRE-CORO

E|---------------------------------------------------
B|---------------------------------------------------
G|---------------------------------------------------
D|-0---0--------------------5---5------0-3p2-0-------
A|-0---0--------------------3---3--0-3----------3-2--
D|-0---0--0-2-3-5-3-2-0-2-0---------------------3-2--


E|---------------------------------------------------
B|---------------------------------------------------
G|---------------------------------------------------
D|-0---0---------------------------------------------
A|-0---0------------------------3b4r3b4r3b4r3--------
D|-0---0--0-5-7-8-7-5-3-5-3-2------------------------


/////////////////////////////////////////////////////////


CORO

X 2
E|---------------------------------------------------
B|---------------------------------------------------
G|---------------------------------------------------
D|-------------------------5-5-5---5---5-5--5-5-5----
A|-0-0-0---0---0-0---0-0-0-3-3-3---3---3-3--3-3-3----
D|-0-0-0---0---0-0---0-0-0---------------------------

E|---------------------------------------------------
B|---------------------------------------------------
G|---------------------------------------------------
D|---------------------------------------------------
A|-0-0-0---0---0-5-7-8-7-5-3-5-3-2--3b4r3b4r3b4r3----
D|-0-0-0---0---0-5-7-8-7-5-3-5-3-2-------------------

Everybody's going to the party have a real good time
Dancing in the desert blowing up the sunshine



/////////////////////////////////////////////////////////

VERSO 2
		Kneeling roses disappearing
E|---------------------------------------------------
B|---------------------------------------------------
G|---------------------------------------------------
D|---------------------------------------------------
A|---------------------------------------------------
D|-7-0-0-8-0-0-7-0-0-8-0-0-7-0-0-8-0-0-7-0-0-8-0-0---

		into moses' dry mouth
E|---------------------------------------------------
B|---------------------------------------------------
G|---------------------------------------------------
D|----------------------------------------10---------
A|-----------------------------------------8---------
D|-7-0-0-8-0-0-7-0-0-8-0-0-7-0-0-8-0-0-7-------------

	
		Breaking into Fort Knox
E|---------------------------------------------------
B|---------------------------------------------------
G|---------------------------------------------------
D|---------------------------------------------------
A|---------------------------------------------------
D|-7-0-0-8-0-0-7-0-0-8-0-0-7-0-0-8-0-0-7-0-0-8-0-0---

		 stealing Our intentions
E|---------------------------------------------------
B|---------------------------------------------------
G|---------------------------------------------------
D|------------------------12----10---9---------------
A|------------------------10-----8---7---------------
D|-7-0-0-8-0-0-7-0-0-8-0-----------------------------

	  Hangers sitting dripped in oil
E|---------------------------------------------------
B|---------------------------------------------------
G|---------------------------------------------------
D|-----------------------------------------10--------
A|------------------------------------------8--------
D|-7-0-0-8-0-0-7-0-0-8-0-0-7-0-0-8-0-0-7-------------


		Crying freedom
E|---------------------------------------------------
B|---------------------------------------------------
G|---------------------------------------------------
D|------------------------12----10---9---------------
A|------------------------10-----8---7---------------
D|-7-0-0-8-0-0-7-0-0-8-0-----------------------------

		Handed to obsoletion
E|---------------------------------------------------
B|---------------------------------------------------
G|---------------------------------------------------
D|-----------------------------------------10--------
A|------------------------------------------8--------
D|-7-0-0-8-0-0-7-0-0-8-0-0-7-0-0-8-0-0-7-------------



	Still you feed us lies from the tablecloth
E|---------------------------------------------------
B|---------------------------------------------------
G|---------------------------------------------------
D|-------------------------5----3--------------------
A|-------------------------5----3--------2-3-2-------
D|-7-0-0-8-0-0-7-0-0-8-0---5----3--------2-3-2-------

/////////////////////////////////////////////////////

PRECORO

E|---------------------------------------------------
B|---------------------------------------------------
G|---------------------------------------------------
D|-0---0--------------------5---5------0-3p2-0-------
A|-0---0--------------------3---3--0-3----------3-2--
D|-0---0--0-2-3-5-3-2-0-2-0---------------------3-2--


E|---------------------------------------------------
B|---------------------------------------------------
G|---------------------------------------------------
D|-0---0---------------------------------------------
A|-0---0------------------------3b4r3b4r3b4r3--------
D|-0---0--0-5-7-8-7-5-3-5-3-2------------------------


/////////////////////////////////////////////////////////


CORO

X 4
E|---------------------------------------------------
B|---------------------------------------------------
G|---------------------------------------------------
D|-------------------------5-5-5---5---5-5--5-5-5----
A|-0-0-0---0---0-0---0-0-0-3-3-3---3---3-3--3-3-3----
D|-0-0-0---0---0-0---0-0-0---------------------------

E|---------------------------------------------------
B|---------------------------------------------------
G|---------------------------------------------------
D|---------------------------------------------------
A|-0-0-0---0---0-5-7-8-7-5-3-5-3-2--3b4r3b4r3b4r3----
D|-0-0-0---0---0-5-7-8-7-5-3-5-3-2-------------------

Everybody's going to the party have a real good time
Dancing in the desert blowing up the sunshine


/////////////////////////////////////////////////////////

PUENTE

PARTE 1

E|---------------------------------------------------
B|---------------------------------------------------
G|---------------------------------------------------   (8x)
D|---------------------------------------------------
A|---------------------------------------------------
D|-5/7-7-7-7-7-7-7-10p7-7-8p7-7-5-5------------------

Blast off
It's party time
And we don't live in a fascist nation

Blast off
It's party time
And where the fuck are you?


PARTE 2


E|---------------------------------------------------
B|---------------------------------------------------
G|---------------------------------------------------
D|---------------------------------------------------
A|---------------------------------------------------
D|-12-12-12-12-12-12-12-12-8-8-8-8-8-8-8-8-----------


E|---------------------------------------------------
B|---------------------------------------------------
G|---------------------------------------------------
D|---------------------------------------------------
A|-0-0-0-0-0-0-0-0-7p0-0-8p0-0-7p0-------------------
D|---------------------------------------------------


Where the fuck are you?
Where the fuck are you?
Why don't presidents fight the war?
Why do they always send the poor?
Why don't presidents fight the war?
Why do they always send the poor?


PARTE 3

X3

E|---------------------------------------------------
B|---------------------------------------------------
G|---------------------------------------------------
D|---------------------------------------------------
A|-0-0-0-0-0-0-0-0-7p0-0-8p0-0-7p0-------------------
D|---------------------------------------------------

Why do they always send the poor?
Why do they always send the poor?
Why do they always send the poor?


/////////////////////////////////////////////////////////

VERSO 3 (Igual al 2do verso)

Kneeling roses disappearing into
Moses' dry mouth
Breaking into Fort Knox stealing
Our intentions
Hangers sitting dripped in oil
Crying freedom
Handed to obsoletion
Still you feed us lies from the tablecloth

/////////////////////////////////////////////////////////

PRECORO (Igual a los anteriores)


/////////////////////////////////////////////////////////

CORO FINAL

	
	
Everybody's going to the party have a real good time
E|---------------------------------------------------
B|---------------------------------------------------
G|---------------------------------------------------
D|-------------------------5-5-5---5---5-5--5-5-5----
A|-0-0-0---0---0-0---0-0-0-3-3-3---3---3-3--3-3-3----
D|-0-0-0---0---0-0---0-0-0---------------------------

E|---------------------------------------------------
B|---------------------------------------------------
G|---------------------------------------------------
D|---------------------------------------------------
A|-0-0-0---0---0-5-7-8-7-5-3-5-3-2--3b4r3b4r3b4r3----
D|-0-0-0---0---0-5-7-8-7-5-3-5-3-2-------------------



Dancing in the desert blowing up the sunshine

E|---------------------------------------------------
B|---------------------------------------------------
G|---------------------------------------------------
D|-------------------------5-5-5---5---5-5--5-5-5----
A|-0-0-0---0---0-0---0-0-0-3-3-3---3---3-3--3-3-3----
D|-0-0-0---0---0-0---0-0-0---------------------------

E|---------------------------------------------------
B|---------------------------------------------------
G|---------------------------------------------------
D|---------------------------------------------------
A|-0-0-0---0---0-5-7-8-7-5-3-5-3-2--3b4r3b4r3b4r3----
D|-0-0-0---0---0-5-7-8-7-5-3-5-3-2-------------------


Everybody's going to the party have a real good time
E|---------------------------------------------------
B|---------------------------------------------------
G|---------------------------------------------------
D|-------------------------5-5-5---5---5-5--5-5-5----
A|-0-0-0---0---0-0---0-0-0-3-3-3---3---3-3--3-3-3----
D|-0-0-0---0---0-0---0-0-0---------------------------

E|---------------------------------------------------
B|---------------------------------------------------
G|---------------------------------------------------
D|---------------------------------------------------
A|-0-0-0---0---0-5-7-8-7-5-3-5-3-2--3b4r3b4r3b4r3----
D|-0-0-0---0---0-5-7-8-7-5-3-5-3-2-------------------

Dancing in the desert blowing up the sunshine

E|---------------------------------------------------
B|---------------------------------------------------
G|---------------------------------------------------
D|-------------------------5-5-5---5---5-5--5-5-5----
A|-0-0-0---0---0-0---0-0-0-3-3-3---3---3-3--3-3-3----
D|-0-0-0---0---0-0---0-0-0---------------------------


/////////////////////////////////////////////////////////

PARTE FINAL


E|---------------------------------------------------
B|---------------------------------------------------
G|---------------------------------------------------
D|---------------------------------------------------
A|---------------------------------------------------
D|-12-12-12-12-12-12-12-12-8-8-8-8-8-8-8-8-----------


E|---------------------------------------------------
B|---------------------------------------------------
G|---------------------------------------------------
D|---------------------------------------------------
A|-0-0-0-0-0-0-0-0-7p0-0-8p0-0-7p0-------------------
D|---------------------------------------------------

Where the fuck are you?
Where the fuck are you?
Why don't presidents fight the war?
Why do they always send the poor?
Why don't presidents fight the war?
Why do they always send the poor?


E|---------------------------------------------------
B|---------------------------------------------------
G|---------------------------------------------------
D|---------------------------------------------------
A|-0-0-0-0-0-0-0-0-7p0-0-8p0-0-7p0-------------------
D|---------------------------------------------------

Why do they always send the poor?
Why do they always send the poor?


E|---------------------------------------------------
B|---------------------------------------------------
G|---------------------------------------------------
D|---------------------------------------------------
A|---------------------------------------------------
D|-13\-12\-11\-10\-9\-8\-7\-6\-5\-4\-3\-2\-1\-0\-----



	Why do they always send the poor?
E|---------------------------------------------------
B|---------------------------------------------------
G|---------------------------------------------------   (7x)
D|---------------------------------------------------
A|-7p0-0-0-0-0-0-0-7p0-0-8p0-0-7p0-------------------
D|---------------------------------------------------


E|---------------------------------------------------
B|---------------------------------------------------
G|---------------------------------------------------
D|---------------------------------------------------
A|-7p0-0-0-0-0-0-0-7p0-0-8p0-0-7---------------------
D|---------------------------------------------------