1719 VISITAS

Can’t stop

Red hot chili peppers

            
                               

INTRO

e|------------------------------|
B|------------------------------|
G|------------------------------|
D|------------------------------|
A|-5-7---5-7---5-7---5-7---5-7--|
E|------------------------------|


e|--------------------------------|
B|--------------------------------|
G|--------------------------------|
D|--------------------------------|
A|-5-7---5-7---5-7---5----5-7-----|
E|---------------------7----------|


RIFF PRINCIPAL

e|------------------------------------------------------------
B|------------------------------------------------------------
G|------7--9---------7--9------------7--9---------7--9--------
D|------------------------------------------------------------
A|---7--------7-7-7--------7-7-7--5--------5-5-5-------5-5-5--
E|------------------------------------------------------------
                                                              

e|------------------------------------------------------------
B|------------------------------------------------------------
G|----7--9---------7--9------------7--9--------7--9-----------
D|------------------------------------------------------------
A|------------------------------------------------------------
E|-7--------7-7-7--------7-7-7--8-------8-8-8--------8-8-8----

PRE-CORO

-|--7--7--7--7---
-|--8--8--8--8---
-|--9--9--9--9---
-|---------------
-|---------------
-|---------------

CORO

-|--7--7----5---5--5---2--2----3----3--3-------
-|--8--8----7---7--7---3--3----5----5--5-------
-|--9--9----7---7--7---4--4----5----5--5-------
-|---------------------------------------------
-|---------------------------------------------
-|---------------------------------------------


-|--3--3----5------2------3--3-------
-|--3--3----7------3------5--5-------
-|--4--4----7------4------5--5-------
-|--5--5-----------------------------
-|-----------------------------------
-|-----------------------------------

PUENTE

(Ritmo ska)

-|--7--7--7--7----5--5--5--5---2--2--2--2---3--3--3--5----
-|--8--8--8--8----7--7--7--7---3--3--3--3---5--5--5--7----
-|--9--9--9--9----7--7--7--7---4--4--4--4---5--5--5--7----
-|--------------------------------------------------------
-|--------------------------------------------------------
-|--------------------------------------------------------

(SOLO)
|-------------------|--------------|--------------|------||
|-15b17------15b17--|-15-------15--|-12-------12--|------||
|-------------------|--------------|--------------|-12---||
|-------------------|--------------|--------------|------||
|-------------------|--------------|--------------|------||
|-------------------|--------------|--------------|------||

|-------------------|------------------|----------------------
|-15b17------17b19--|-15--------15b17--|-12-------15----------
|-------------------|------------------|--------------14--12--
|-------------------|------------------|----------------------
|-------------------|------------------|----------------------
|-------------------|------------------|----------------------