1326 VISITAS

Clavado en un bar

Mana

            
                               


  ===========X2============
E|-------------------------|
B|-------------------------|
G|------9-----9------------|
D|---9--9--9--9--4--4------|
A|---9--7--9--7--4--4------|
E|---7-----7-----2--2------|

E|-----------------------------------|
B|-----------------------------------|
G|-----9-----------------------------|
D|--9--9--6--------------------------|
A|--9--7--6--------------------------|
E|--7-----4--------------------------|


VERSO

 B                           F#                           G#m
Aquí me tiene bien clavado, soltando las penas en un bar,
                  E
Brindando por su amor.
 B                        F#                           G#m
Aquí me tiene abandonado, bebiendo tequila pa'olvidar,
                       E    F#
Y sacudirme hacia el dolor.


PUENTE

 E      F#       G#m      B       E      F#m
¿Dónde estas bendita?,¿Dónde te has metido?
 D#sus2            Esus2  D#sus2        Esus2
Abre un poco el corazón, deja amarte corazón
 D#sus2     Esus2      F#
Ven y sácame de este bar


CORO


        B            D#m   G#m                   E
Estoy clavado,estoy herido, estoy ahogado en un bar
       B               D#m   G#m                      E
Desesperado, en el olvido amor, estoy ahogado en un bar


VERSO

 B                       F#                        G#m
Sé que te buscan demasiados, que te pretende cantidad
                        E
Pero eso no es felicidad
 B                            F#                         G#m
Y mi amor nunca se raja, y mi amor nunca jamás te va a fallar
           E    F#
Nunca jamas....


PUENTE

 E      F#       G#m      B       E      F#m
¿Dónde estas bendita?,¿Dónde te has metido?
 D#sus2            Esus2  D#sus2        Esus2
Abre un poco el corazón, deja amarte corazón
 D#sus2     Esus2      F#
Ven y sácame de este bar



CORO


       B            D#m   G#m                   E
Estoy clavado,estoy herido, estoy ahogado en un bar
      B               D#m   G#m                      E
Desesperado, en el olvido amor, estoy ahogado en un bar



PRE-SOLO
        B                       D#m   G#m                   E
 Muy desesperado, muy en el olvido,   estoy ahogado en un bar
(B)C#m              E                    B            D#m
   Déjate querer amor,yo quiero ser tu todo y tu corazón
(B)C#m                 E               B                       F#m
   Ven a rescatarme amor, yo quiero ser tu sol, yo quiero ser tu mar



SOLO



E|------------------------------------------------|
B|-----12----14----16--------12----14----16-17----|
G|-/11----11----11-------/11----11----11----------|
D|------------------------------------------------|
A|------------------------------------------------|
E|------------------------------------------------|


E|------------------------------------------------|
B|--17h19---17-16-14------------------------------|
G|--------------------/15-16-----/15-16-----------|
D|---------------------------18---------18--------|
A|------------------------------------------------|
E|------------------------------------------------|

E|-------------------------------19---------------|
B|-----------------16-19p16--19b----19b-----------|
G|-----------16-18--------------------------------|
D|--14-16-18--------------------------------------|
A|------------------------------------------------|
E|------------------------------------------------|


E|--16b---17p16--------------------------------------------|
B|--------------19-16--------------------------------------|
G|---------------------19-18-16-------------------16-18p16-|
D|------------------------------19-18-16----16-18----------|
A|---------------------------------------18----------------|
E|---------------------------------------------------------|

E|-----16-----------16-----------16------------------------------|
B|--------19p16--------19p16--------19p16------------------------|
G|-18b----------18b----------18b---------19p16-18p16-------16h18-|
D|---------------------------------------------------18p16-------|
A|---------------------------------------------------------------|
E|---------------------------------------------------------------|


E|----------------------------------------------------------|
B|----------------------------------------------------------|
G|-16-18-16-/15------15-18-15-16--18p16p15-16---18p16p15-16-|
D|--------------16------------------------------------------|
A|----------------------------------------------------------|
E|----------------------------------------------------------|

E|------------------------------------------------|
B|------------------------------------------------|
G|-15-16-/15--------------------------------------|
D|-----------18-----------------------------------|
A|------------------------------------------------|
E|------------------------------------------------|




VERSO


 B                         F#                        G#m
 Aquí me tienen embriagado, llorando de rabia en un bar
                    E
 Brindando por su amor
 B                          F#                           G#m
 Aquí me tiene bien clavado, bebiendo tequila pa'olvidar todo
                E
 No es justo amor...


CORO

        B                      D#m    G#m                   E
 Muy desesperado, muy en el olvido,   estoy ahogado en un bar
        B                      D#m    G#m                   E
 Muy desesperado, muy en el olvido,   estoy ahogado en un bar



  ===========X4============
E|-------------------------|
B|-------------------------|
G|------9-----9------------|
D|---9--9--9--9--4--4------|
A|---9--7--9--7--4--4------|
E|---7-----7-----2--2------|

E|-------------------------|
B|-------------------------|
G|-------------------------|
D|--9----9-9---------------|
A|--9----9-9---------------|
E|--7----7-7---------------|