4230 VISITAS

Cocaine

Eric Clapton

            
                               



INTRO
E|------------------------------------------
B|------------------------------------------
G|--9-9--7---9---7--------------------------
D|--9-9--7---9---7-------------------0------
A|--7-7--9---7---5-----0h2p0h2p0h2p0--------
E|------------------------------------------

E|------------------------------------------
B|------------------------------------------
G|--7/9---7/9/7-----------------------------
D|-----------------0-----0------------------
A|-------------------0h2----0---------------
E|-----------------------------3b-0---------


E|------------------------------------------
B|------------------------------------------
G|--9-9--7---9----7-------------------------
D|--9-9--7---9------9--7--5h6---------------
A|--7-7--5---7----------------7-5-7---------
E|------------------------------------------


E|------------------------------------------
B|------------------------------------------
G|------------------------------------------
D|------0-----------------------------------
A|--0h2-------------------------------------
E|---------3b--0----------------------------


ESTRIBILLO


E|------------------------------------------
B|------------------------------------------
G|--9---7--5--4-----------------------------
D|--9---7--5--4-----------------------------
A|--7---5--3--2-----------------------------
E|------------------------------------------


1ER SOLO

E|------------------------------------------------------
B|------------------------------------------------------
G|---------12-12b-------------------------12-12b--------
D|-12-14----------14-14-12-14---14-12-14----------14----
A|------------------------------------------------------
E|------------------------------------------------------

/////////////////////////////////////////////////////

E|------------------------------------------
B|--12--12--12----12------12--12--12--12----
G|--14b-14b-14b---14b(16)r14--14--14--------
D|------------------------------------------
A|------------------------------------------
E|------------------------------------------


E|------------------------------------------
B|--14b-12----------------------------------
G|----------14-14-12-14---14-12-------------
D|------------------------------------------
A|------------------------------------------
E|------------------------------------------


/////////////////////////////////////////////////////


E|------------12----------------------------
B|---------12----15-12----------------------
G|-14-14b--------------15-14-12-----14b-----
D|------------------------------14----------
A|------------------------------------------
E|------------------------------------------

E|------------------------------------------
B|------------------------------------------
G|--12--------------------------------------
D|-------14-14--12--14----------------------
A|------------------------------------------
E|------------------------------------------




/////////////////////////////////////////////////////


E|--------------------------------------------------------
B|--15----------------------------------------------------
G|-----14b(16)r14--12-----12-----------12b-----------12b--
D|--------------------14-----12--14-14-----14--12-14------
A|--------------------------------------------------------
E|--------------------------------------------------------


/////////////////////////////////////////////////////


E|--------12--------------------------12----
B|-----12-----15-12-------------------------
G|-14b--------------14b-14-12----14b--------
D|----------------------------14------------
A|------------------------------------------
E|------------------------------------------

E|------------------------------------------
B|-15-15--15---15---15----------------------
G|--------14b-(16)--14---12-----------------
D|---------------------------14-------------
A|------------------------------------------
E|------------------------------------------

/////////////////////////////////////////////////////


E|--12------------------------------------------------
B|-----15--15---15------------------------------------
G|---------14b--14--12----12----------------12-12b----
D|---------------------14----14---14--12h14--------14-
A|----------------------------------------------------
E|----------------------------------------------------

////////////////////////////////////////////////////

E|----------------------------------------------
B|----------------------------------------------
G|---------------12-12-12-12--------------------
D|--------12h14--12-12-12-12--14----------------
A|--12h14---------------------------------------
E|----------------------------------------------


E|------------------------------------------
B|-------12---14b--14--12-------------------
G|-------12---14b--14--12-------------------
D|-14-14------------------14----------------
A|------------------------------------------
E|------------------------------------------


/////////////////////////////////////////////////////



E|--12-----12-----12-----12-----12---12--12---
B|-----15b----15b----15b----15b------15b-15b--
G|--------------------------------------------
D|--------------------------------------------
A|--------------------------------------------
E|--------------------------------------------


E|--12----------------------------------------
B|------15--12------15------------------------
G|--------------14b(16)r14---12---------------
D|--------------------------------------------
A|--------------------------------------------
E|--------------------------------------------

E|------------------------------------------------------
B|-15------15-15----------------------------------------
G|----14r--14-14--12-14b---12-14b---12--------12-12b----
D|--------------------------------------14-12--------14-
A|------------------------------------------------------
E|------------------------------------------------------


/////////////////////////////////////////////////////

E|--------------------------------------------
B|--------------------------------------------
G|-14b-14--14p12-------14b--------------------
D|--------------14-12-------------------------
A|--------------------------------------------
E|--------------------------------------------

E|--------------------------------------------------
B|--------------------------------------------------
G|---------------12-------------------------12--0---
D|-14-12-14-14-------14-12-14--------12h14--14------
A|-----------------------------12h14----------------
E|--------------------------------------------------




OUTRO

E|------------------------------------------
B|-5---5--5--5--5-----12--------------------
G|-7b-----7b----7b----12--------------------
D|-----------------------14-12--------------
A|------------------------------------------
E|------------------------------------------

E|------------------------------------------
B|-15-15--12--15----------------------------
G|----------------14-12---------------------
D|------------------------------------------
A|------------------------------------------
E|------------------------------------------

E|--------------------------------------------------------
B|--5--5--5----5---5------5--5----5-5/3--3-------3--------
G|--7b-7b-7b---7b------7b------7b------------4p0---4/2p0--
D|--------------------------------------------------------
A|--------------------------------------------------------
E|--------------------------------------------------------

E|------------------------------------------------
B|------------------------------------------------
G|-----------------------------------0--------1---
D|-------0-0-0--2-0------0---------0----------2---
A|--0h2--------------0h2-------0h2------------2---
E|--------------------------------------3b-0--0---



VARIACIONES DEL RIFF PRINCIPAL


1

E|------------------------------------------
B|------------------------------------------
G|--9-9--7---9----------------2-2-2---------
D|--9-9--7---9--------------0-------0-------
A|--7-7--9---7------5/7-5-------------------
E|--------------7---------------------------


2

E|------------------------------------------
B|------------------------------------------
G|---------------------------0--------------
D|--2-2-0-2------2-0-------0----------------
A|------------2--------0h2------------------
E|---------------------------3b-0-----------



2

E|------------------------------------------
B|------------------------14--14--14--------
G|------------------------14--14--14--------
D|--2-2-0-2------2-0------14--14--14--------
A|------------2-----------------------------
E|------------------------------------------