367 VISITAS

COCHISE

Audioslave

            
                               


E|----------------------------------------------------|
B|----------------------------------------------------|
G|----------------------------------------------------|
D|-x-x-x-x-x-x-x-x-x-x-x-x-x-x-x-x--------------------|
A|-x-x-x-x-x-x-x-x-x-x-x-x-x-x-x-x--------------------|
E|-x-x-x-x-x-x-x-x-x-x-x-x-x-x-x-x--------------------|

E|----------------------------------------------------|
B|----------------------------------------------------|
G|----------------------------------------------------|
D|----------------------------------------------------|
A|----------------------------------------------------|
E|-0-0-0-0-0-0-0-0...---------------------------------|

E|----------------------------------------------------|
B|----------------------------------------------------|
G|----------------------------------------------------|
D|----------------------------------------------------|
A|-5h7--5---5--------5h7--5---------------------------|
E|--------7---7-3-0---------7-3-0---------------------|


I've been watching
While you've been coughing
I've been drinking life
While you've been nauseous
And so I drink to health
While you kill yourself
And I've got just one thing
That i can offer

E|----------------------------------------------------|
B|----------------------------------------------------|
G|----------------------------------------------------|
D|-------------------7--8-----------------------------|
A|-5h7--5---5--------5--6-----------------------------|
E|--------7---7-3-0-----------------------------------|

CORO

E|----------------------------------------------------|
B|----------------------------------------------------|
G|----------------------------------------------------|
D|--------------------------0-------------------------|
A|-5h7--5h7---------------2---------------------------|
E|-----------5-3-0--3--5------------------------------|

Go on and save yourself
And take it out on me
Go on and save yourself
And take it out on me


Solo:


E|----------------------------------------------------|
B|----------------------------------------------------|
G|-2b3r2...----2b3r2...-------------------------------|
D|----------------------------------------------------|
A|----------------------------------------------------|
E|----------------------------------------------------|


E|----------------------------------------------------|
B|----------------------------------------------------|
G|-14b15r14...-14b15r14...-14b15r14...-14b15r14...----|
D|----------------------------------------------------|
A|----------------------------------------------------|
E|----------------------------------------------------|


E|----------------------------------------------------|
B|----------------------------------------------------|
G|-14b15r14...-14b15r14...----------------------------|
D|----------------------------------------------------|
A|----------------------------------------------------|
E|----------------------------------------------------|


VERSO

I'm not a martyr
I'm not a prophet
And I won't preach to you
But here's a caution
You better understand
That I won't hold your hand
But if it helps you mend
Then I won't stop it

CORO

Go on and save yourself
And take it out on me
Go on and save yourself
And take it out on me
Go on and save yourself
And take it out on me
Go on and save yourself
And take it out on me

PUENTE

E|----------------------------------------------------|
B|----------------------------------------------------|
G|-2h4-----2h4-----------2h4-----2h4------------------|  (2x)
D|----------------------------------------------------|
A|------2-------2-------------2-------2---------------|
E|----------------------------------------------------|


E|----------------------------------------------------|
B|----------------------------------------------------|
G|----------------------------------------------------|
D|-0h2-----0h2-----------0h2-----0h2------------------|
A|----------------------------------------------------|
E|------0-------0-------------0-------0---------------|


E|----------------------------------------------------|
B|----------------------------------------------------|
G|----------------------------------------------------|
D|-0h2-----0h2-----------0h2---------7----------------|
A|-----------------------------------5----------------|
E|------0-------0--------------0----------------------|

Drown if you want
And I'll see you at the bottom
Where you'll crawl on my skin
And put the blame on me
So you don't feel a thing
E|----------------------------------------------------|
B|----------------------------------------------------|
G|----------------------------------------------------|
D|-9----9-------------------0-------------------------|
A|-7----7-----------------2---------------------------|
E|-----------5-3-0--3--5------------------------------|

CORO

Go on and save yourself
And take it out on me
Go on and save yourself
And take it out on me
Go on and save yourself
And take it out on me
Go on and save yourself
And take it out on me