1228 VISITAS

Corazon Fugitivo

La renga

            
                               

INTRO

e|-----------------------|
b|-----------------------|
g|-----------------------|
d|-2-2-2-----------------|
a|-2-2-2-4-4-0---------2-|
e|-0-0-0-------4--2--0---|x4


VERSO 1


B           
Escapando en la noche 
C#
voy a dejarlo todo atrás, 
B
como un polizón, esperando 
C#                      A
en el frío de la terminal. 

B 
Oh, mi alma solitaria,
C# 
tendré que irte a buscar, 
B
escapando en la noche, 
C#                      A
nadie nos encontrará. 


ESTRIBILLO

LICK
E|---------------------------------------------------
B|---------------------------------------------------
G|---------------------------------------------------
D|--6/7/6---4----------------------------------------
A|------------7--------------------------------------
E|---------------------------------------------------

B            C#       (LICK 1)
Hielo en la madrugada, 
B            C#       (LICK 1)
la fría ruta del mar, 
B            C#       (LICK 1)
a un corazón que se escapa 
B            C#           A
no lo quieras enjaular. 


INTRO X4


VERSO 2

Cuando pase la tormenta 
nada nos detendrá, 
perdido al sur de aquellas playas, 
arenas de la soledad. 

Corazón fugitivo, 
tendré que irte a buscar, 
escapando en la noche, 
nadie nos encontrará. 


ESTRIBILLO

Hielo en la madrugada, 
la fría ruta del mar, 
a un corazón que se escapa 
no lo quieras enjaular, no. 


INTRO X 2


PUENTE:


////////////////////////////////////

Primer parte dos vueltas

E|-----------------------|
B|-----------------------|
G|--6-6------------------|
D|--6-6--4-4-6p4-----4-6-| x2
A|--4-4----------7-4-----|
E|-----------------------|

E|------------------------|
B|------------------------|
G|------------------------|
D|-2-2--------------------| x2
A|-2-2--2-2-4p2-----2-4---|
E|-0-0----------4-2-------|


//////////////////////////////////


E|--------------------------|
B|--------------------------|
G|---------6----------------|
D|---------6-4-4-6p4----4-6-|x2
A|-4-4-4-4-4--------7-4-----|
E|--------------------------|


E|----------------------------|
B|----------------------------|
G|----------------------------|
D|---------2------------------|x2
A|---------2--2-2-4p2-----2-4-|
E|-0-0-0-0-0----------4-2-----|



SOLO



E|-----------------------------------------------------
B|---------------/7-5p4--5p4--5p4-5p4--0---------------
G|---------------------------------------4-------------
D|---------9-7-----------------------------------------
A|-----7-6---------------------------------------------
E|--/7-------------------------------------------------


E|---------------------------------------------------
B|-/12-12--10-9--10p9-10p9-10p9----------------------
G|------------------------------9--------------------
D|---------------------------------------------------
A|---------------------------------------------------
E|---------------------------------------------------

E|------12-12------12------12------12----------------
B|------12-12------12------12------12----------------
G|--11b----11b(13)-11b(13)-11b(13)-11b(13)r11-9------
D|---------------------------------------------------
A|---------------------------------------------------
E|---------------------------------------------------


E|--------12-----------------------------------------
B|-----12-----15b(17)-15------------12b--------------
G|-/14--------------------12--12-14-12b--------------
D|--------------------------------------14-----------
A|---------------------------------------------------
E|---------------------------------------------------


E|----12----14b(15)r14-12--15b(17)-15-12----12----12-12-12-12-12--14b-
B|-14----14------------------------------14----14---------------------
G|--------------------------------------------------------------------
D|--------------------------------------------------------------------
A|--------------------------------------------------------------------
E|--------------------------------------------------------------------

Hielo en la madrugada, 
la fría ruta del mar, 
a un corazón que se escapa 
no lo quieras enjaular

FINAL(INTRO)

E|---------------------------|-------------------------------
B|---------------------------|-------------------------------
G|-------------------6-6-6-6-|-------------------------------
D|-------------------6-6-6-6-|----6p4-----4-6----------------
A|-2-2-2-2-2-2-2-2-2-4-4-4-4-|--------7-4--------------------
E|-0-0-0-0-0-0-0-0-0---------|-------------------------------