1127 VISITAS

Day Tripper

The beatles

            
                               


INTRO:

e|----------------------------------------------------| 
B|----------------------------------------------------| 
G|----------------------------------------------------| 
D|----------------------2----0-------4--------0----2--| 
A|------------------2------------2-------2------------| 
E|----0----3----4-------------------------------------| (5x) 

///////////////////////////////////////////////////////////////

VERSO


Base: E E7 

e|----------------------------------------------------| 
B|----------------------------------------------------| 
G|----------------------------------------------------| 
D|----------------------2----0-------4--------0----2--| 
A|------------------2------------2-------2------------| 
E|----0----3----4-------------------------------------| (2x) 

e|----------------------------------------------------| 
B|----------------------------------------------------| 
G|------------------------2----0-------4-------0----2-| 
D|--------------------2------------2-------2----------| 
A|------0----3----4-----------------------------------| 
E|----------------------------------------------------| 

e|----------------------------------------------------| 
B|----------------------------------------------------| 
G|----------------------------------------------------| 
D|----------------------2----0-------4--------0----2--| 
A|------------------2------------2-------2------------| 
E|----0----3----4-------------------------------------| 


Got a good reason for taking the easy way out
Got a good reason for taking the easy way out now
She was a day tripper, a one way ticket yeah
It took me so long to find out, and I found out


/////////////////////////////////////////////////////////

CORO:

F#7 A7 G#7 C#m7 B7 

e|------------------------------------------------------------| 
B|------------------------------------------------------------| 
G|------------------------------------------------------------| 
D|------------------------------------------------------------| 
A|------------------------------0-----------------------------| 
E|-2---2-2-2-2-2-2--2-2-2-2-0h2---2-2--2-2-2-2-2-2-2-2--0h2-2-| 

e|- 
B|--------------------------------------------------9--9--9--9--| 
G|--------------------------------------------------10-10-10-10-| 
D|--------------------------------------------------9--9--9--9--| 
A|---------------------------------------6----------11-11-11-11-| 
E|-2-2-0h2-2-2-2/5-5-5-5-5-5-5-5-4-4-4-4-------4/9--9--9--9--9--| 

e|------------------| 
B|-7--7--7--7--7--7-| 
G|-8--8--8--8--8--8-| 
D|-7--7--7--7--7--7-| 
A|-9--9--9--9--9--9-| 
E|-7--7--7--7--7--7-| 

She's a big teaser, she took me half the way there
She's a big teaser, she took me half the way there now
She was a day tripper, a one way ticket yeah
It took me so long to find out, and I found out


////////////////////////////////////////////////////////////////////

VERSO


Tried to please her, she only played one night stands
Tried to please her, she only played one night stands now
She was a day tripper, a Sunday driver yeah
It took me so long to find out, and I found out

/////////////////////////////////////////////////////////////////

SOLO:

B7  B7(4)  

e|-------------------------------------------------------------| 
B|--------------------------------------2----------------------| 
G|----------------------4-----2----------------------2--4------| 
D|---4-----0h1-----4---------------4-----------4---------------| 
A|---2---------------------------------------------------------| 
E|-------------------------------------------------------------| (3x)


e|--------------------5-------------| 
B|-----3b4rb3---3-5b7---7rb5-3------| 
G|-4-4--------4----------------4----| 
D|----------------------------------| 
A|----------------------------------| 
E|----------------------------------|

e|-------10----10-12-12b14-14r12---10---| 
B|-12-12----12------------------------12| 
G|--------------------------------------| 
D|--------------------------------------| 
A|--------------------------------------| 
E|--------------------------------------| 


 



BASE SOLO:

e|---------------------------------------------| 
B|-------------------------------------------7-| 
G|--------------------------------6---8---9----| 
D|--------------------6---7---9----------------| 
A|---------6---7--9----------------------------| 
E|--7--9---------------------------------------| 

///////////////////////////////////////////////////////////////////////

VERSO

Tried to please her, she only played one night stands
Tried to please her, she only played one night stands now
She was a day tripper, a Sunday driver yeah
It took me so long to find out, and I found out


///////////////////////////////////////////////////////////////////////

REPETIR RIFF

Day tripper
Day tripper yeah
Day tripper
Day tripper yeah
Day tripper