2483 VISITAS

Don´t Cry

Guns N' Roses

            
                               


     
E|-------------0--------------1------------
B|---------------1----------3---3----------
G|-----------2-----2------2-------2--------
D|---------2---------0-0------------0------
A|------0----------------------------------
E|-3---------------------------------------


E|---------3-------------------------------
B|-----------3-----------------------------
G|-------0-----0-------0-----0-------------
D|-----0---------0---2-----0---------------
A|---2-------------3-----2-----3-2---------
E|-3---------------------------------------


E|--------0--------------1-----------------
B|----------1----------3---3---------------
G|------2-----2------2-------2-------------
D|----2---------0-0------------0-----------
A|-0---------------------------------------
E|-----------------------------------------


E|-----------------------------------------
B|-----------------------------------------
G|-------0---------------------------------
D|-----0-----------------------------------
A|---2-------------------------------------
E|-3----------3-3-4-5----------------------



/////////////////////////////////////////////////




E|--------0-------------1------------------    	|
B|----------1---------3---3---0------------	|
G|------2-----2-----2-------2--------------	|
D|----2----------0-------------------------	|
A|-0---------------------------------------	|
E|-----------------------------------------	| X3
						|
E|---------3-------------------------------	|
B|-----------3---0-------------------------	|
G|------0------0-------0-----0-------------	|
D|----0--------------2-----0---------------	|
A|-----------------3-----2-----3-2-0-------	|
E|-3---------------------------------------	|


E|--------0-------------1------------------
B|----------1---------3---3---0------------
G|------2-----2-----2-------2--------------
D|----2----------0-------------------------
A|-0---------------------------------------
E|-----------------------------------------

E|---------3-------------------------------
B|-----------3-----------------------------
G|-----0-------0-------0-------------------
D|-------0-----------2---2---0-------------
A|-----------------3-------2---0-----------
E|-3---------------------------------------




Am            Dm
  Talk to me softly
       G5               ( C  G/B )
There's something in your eyes
Am                 Dm
  Don't hang your head in sorrow
G5                 ( C  G/B )
  And please don't cry
Am                Dm
  I know how you feel inside
G5                 ( C  G/B )
  I've been there before
Am            Dm
  Something changing inside you
G5              ( C  G/B )
  And don't you know

////////////////////////////////////////

CORO 1

(A)

E|-----------------------------------------
B|---------1-------------3-----------------
G|-------2---2-----4---4-------------------
D|-----3---------3---5--------5------------
A|-------------------------------3--2------
E|-----------------------------------------

E|-----------------------------------------
B|-------0h1------3---1-----0h1------------
G|-----2------2-----2---2--------2---------
D|---2----------2------------------2-------
A|-0---------------------------------------
E|-----------------------------------------

(B)

E|-------1---------------------------------
B|-----1-------1---1---------3-------------
G|---2-----------2---------4-----4---4-----
D|-3--------------------5----------5-------
A|-----------------------------------------
E|-----------------------------------------

E|---------------------0-------------------
B|--------0h1----1-3/5---5\3-1-3-1---------
G|----2--------2-------------------2p0-----
D|------2----------------------------------
A|-0---------------------------------------
E|-----------------------------------------

(C)

E|-----------------------------------------
B|-----1-----------------3-----------------
G|---2---2---2---------4---4---4-----------
D|-3-------3---------5-------5-------------
A|-----------------------------------------
E|-----------------------------------------


E|-----------------------------------------
B|-------1--------1--------1------0--------
G|-----0--------0--------0----------0------
D|---2--------0--------2--------0----------
A|-3--------2--------0---------------------
E|----------------------------3------------

(D)

E|-----------------------------------------
B|----------------------3--------1-----0h1-
G|---------2---2------4---4---4--2--2------
D|----3------3------5-------5----2---------
A|-------------------------------0---------
E|-1-------------3-------------------------




F             G    Am
  Don't you cry tonight

I still love you baby
F             G    Am
  Don't you cry tonight
F             G        C
  Don't you cry all tonight
            G/B    Am       G5   F
There's a heaven above you baby
                G        Am
And don't you cry all tonight


///////////////////////////////////////////////////

VERSO 2


E|--------0-------------1------------------    	|
B|----------1---------3---3---0------------	|
G|------2-----2-----2-------2--------------	|
D|----2----------0-------------------------	|
A|-0---------------------------------------	|
E|-----------------------------------------	| X3
						|
E|---------3-------------------------------	|
B|-----------3---0-------------------------	|
G|------0------0-------0-----0-------------	|
D|----0--------------2-----0---------------	|
A|-----------------3-----2-----3-2-0-------	|
E|-3---------------------------------------	|


E|--------0-------------1------------------
B|----------1---------3---3---0------------
G|------2-----2-----2-------2--------------
D|----2----------0-------------------------
A|-0---------------------------------------
E|-----------------------------------------


E|--------3--------------------------------
B|----------3---------1-------1-------1----
G|------0-----0-----0-------0-------0------
D|----0-----------2-------0-------2--------
A|--------------3-------2-------0----------
E|-3---------------------------------------


E|-----------------------------------------
B|-----1-----------------------------------
G|-------0---------------------------------
D|---0-------------------------------------
A|-----------------------------------------
E|-3---------------------------------------




Am            Dm
  Give me a whisper
G5             ( C  G/B )
  And give me a sign
Am           Dm
  Give me a kiss before
    G5          ( C  G/B )
You  tell me goodbye
Am           Dm
  Don't you take it so hard now
G5                           ( C  G/B )
  And please don't take it so bad
Am               Dm
  I'll still be thinking of you

G5                  C     G4/B  Am7    G4
  And the times we ha--a--a--a--a--ad baby


//////////////////////////////////////////////

CORO (2):

(A)

E|-----------------------------------------
B|--------1----------------3---------------
G|-----2----2---2-------4-----4------4-----
D|-3----------3------5----------5----------
A|-----------------------------------------
E|-----------------------------------------


E|-----------------3p0---------------------
B|--------0h1----1--------1--1--1--1-------
G|----2--------2--------2------------------
D|------2----------------------------------
A|-0---------------------------------------
E|-----------------------------------------


(B)

E|----------------------------------------
B|----------1---------------3-------------
G|-----0h2----2--2-------4------4-----4---
D|-3------------3-----5------------5------
A|----------------------------------------
E|----------------------------------------


E|-------------0------0-----0--------------
B|------1-3/5----5/8----8/5---5\3-3p1------
G|----2------------------------------------
D|-----------------------------------------
A|-0---------------------------------------
E|-----------------------------------------

(C)

E|-----------------------------------------
B|-------1----------------3----------------
G|---0h2---2----2-----4-----4--------------
D|-3---------3-----5----5-----5------------
A|-----------------------------------------
E|-----------------------------------------


E|-----------------------------------------
B|-----------------------------------------
G|-----------------------------------------
D|-5---5---2---5----3------5---5/7---------
A|-3---2---0---5----3------5---------------
E|-------------3----1------3---------------


//////////////////////////////////////////////////////////

SOLO:



E|---------------------------------------------------
B|-----------------------------8----------------8-8--
G|-7b9r7p5-7~~~---7b9r7p5-7b9-------b9r7p5-7b9-------
D|---------------------------------------------------
A|---------------------------------------------------
E|---------------------------------------------------


E|---------------------------------------------------
B|---------------------------------------------------
G|-b9r7-5~-------------------------------------------
D|----------7~--5~-----------------------------------
A|------------------5b6r5-3~-------------------------
E|---------------------------------------------------


E|---------------------------------------------------
B|----------------------------------------15b17-13~--
G|-7/9-9-10-10/12-12/14-------------12h14------------
D|----------------------------12-14------------------
A|-5/7-7--8--8/10-10/12-12h15------------------------
E|---------------------------------------------------


E|---------------------------------------------------
B|---------------------------------------------------
G|-14~-12--------------------------------------------
D|--------14-14h15p14p12-14p12-12-10-12p10-------10~-
A|-----------------------------------------12-10-----
E|---------------------------------------------------


E|---------------------------------------------------
B|---------------------------------------------------
G|---------------------------------------------------
D|---------------------------------------------------
A|-12-10-12~~----------------------------------------
E|---------------------------------------------------


E|-------15----15-------------------15-----15-------------
B|-15b17---(17)---17r15p13h15-15b17---(17)----17r15-13/12-
G|--------------------------------------------------------
D|--------------------------------------------------------
A|--------------------------------------------------------
E|--------------------------------------------------------


E|-------------------------------13------------------
B|-------12-13/15-13-12-13----------13-15b17-15------
G|----13-------------------14------------------------
D|-14-------------------------15---------------------
A|---------------------------------------------------
E|---------------------------------------------------


E|---------------------------------------------------
B|-15b17r15p13---------------------------------------
G|-------------12b14---14-12----------------12b14----
D|---------------------------14-12b14r12----12b14----
A|---------------------------------------15----------
E|---------------------------------------------------


///////////////////////////////////////////////////

VERSO 3

E|--------1---------------3------------------------
B|------3---3---0-----------3---0------------------
G|----2-------2-------0-------0-------0----0-------
D|-0-----------------0--------------2-----0--------
A|--------------------------------3-----2---3-2-0--
E|-----------------3-------------------------------



E|--------0-------------1------------------    	|
B|----------1---------3---3---0------------	|
G|------2-----2-----2-------2--------------	|
D|----2----------0-------------------------	|
A|-0---------------------------------------	|
E|-----------------------------------------	| X2
						|
E|---------3-------------------------------	|
B|-----------3---0-------------------------	|
G|------0------0-------0-----0-------------	|
D|----0--------------2-----0---------------	|
A|-----------------3-----2-----3-2-0-------	|
E|-3---------------------------------------	|


E|--------0-------------1------------------    	
B|----------1---------3---3---0------------	
G|------2-----2-----2-------2--------------	
D|----2----------0-------------------------	
A|-0---------------------------------------	
E|-----------------------------------------

E|--------3--------------------------------
B|----------3---3--------------------------
G|------0-----0----------------------------
D|----0-------------5---5---2---5----------
A|------------------3---2---0---5----------
E|-3----------------------------3----------



Dm              G5
   And please remember
( C  G/B )      Am
  That I never lied
Dm              G5
  And please remember
( C  G/B )      Am
  How I felt inside now honey
Dm           G5
  You gotta make it your own way
( C  G/B )         Am
  But you'll be alright now sugar
Dm             G5
  You'll feel better tomorrow
C5          G/B     A5        G5
  Come the morning light now baby


///////////////////////////////////////////////////

CORO FINAL


LICK 1

E|---------------------------------------------------
B|-15b17---b17---b17-b17--b17-b17r15--13--15-13------
G|-----------------------------------------------14~-
D|---------------------------------------------------
A|---------------------------------------------------
E|---------------------------------------------------


LICK 2

E|-15b17-15b17r15-12---------------------------------
B|-------------------15b17r15--13--15b-13-----15-----
G|---------------------------------------------------
D|---------------------------------------------------
A|---------------------------------------------------
E|---------------------------------------------------


E|---------------------------------------------------
B|-13-15-15b17r15--15--12b13r12-12--10-10b12---------
G|---------------------------------------------------
D|---------------------------------------------------
A|---------------------------------------------------
E|---------------------------------------------------

LICK 3


E|---------------------------------------------------
B|-----------12-13--------15-15b17-15b17r15-13-------
G|-----------------14--------------------------------
D|-3--3/5--------------------------------------------
A|---------------------------------------------------
E|---------------------------------------------------

E|-13---15b17--15--------------------------------
B|------------------b17r15--13--13---------------
G|-----------------------------------------------
D|-----------------------------------------------
A|-----------------------------------------------
E|-----------------------------------------------



F5            G5   A5
  Don't you cry tonight
F5            G5   A5
  Don't you cry tonight
F5            G5   C5
  Don't you cry tonight
           G/B     A5       G5
There's a heaven above you baby
F5            G5 F5                 G5
  Don't you cry,   don't you ever cry
F5            G5   E5
  Don't you cry tonight
       F5
Baby, maybe someday
F5            G5 F5                 G5
  Don't you cry,   don't you ever cry
F5            G5   C5
  Don't you cry tonight



E|-12-12-----------12-12------------------
B|--------13-13-13-------13-13-13---------
G|----------------------------------------
D|----------------------------------------
A|----------------------------------------
E|----------------------------------------


E|--------13--------12--------10------8-------
B|--------------------------------------------
G|--12/14-----14/12----12/10-----10/9----9/7--
D|--------------------------------------------
A|--------------------------------------------
E|--------------------------------------------

E|----------------------------------------
B|----------------------------------------
G|----------------------------------------
D|--5h7-----------------------------------
A|-------5/7/5/3--------------------------
E|----------------------------------------