1368 VISITAS

For Whom The Bell Tolls

Metallica

            
                               

INTRO

 ========12X========
E|-----------------|
B|-----------------|
G|-----------------|  
D|-4--4---4--4---2-|
A|-4--4---4--4---2-|
E|-2--2---2--2---0-|


E|-----------------|
B|-----------------|
G|-----------------|
D|-4--4------------|
A|-4--4------------|
E|-2--2------------|


E|----------------------------------|
B|----------------------------------|
G|----------------------------------|
D|-------------------------------2--|
A|-2-5-4-3-2-5-4-3-2-5-4-1-2-4-5-0--|
E|-0-3-2-1-0-3-2-1-0-3-2-1-0-2-3----|

E|----------------------------------|
B|----------------------------------|
G|----------------------------------|
D|-------------------------------4--|
A|-2-5-4-3-2-5-4-3-2-5-4-1-2-4-5-2--|
E|-0-3-2-1-0-3-2-1-0-3-2-1-0-2-3----|


E|----------------|
B|----------------|
G|----------------|
D|-2--------------|
A|-2--------------|
E|-0--------------|

///////////////////////////////////////////

1ER SOLO

GUITARRA BASE

E|------------------|
B|------------------|
G|------------------|
D|-2------5----5----|
A|-2------5----5----|
E|-0------3----3----|

E|-------------------|
B|-------------------|
G|-----------5--2----|
D|-2----5----5--2----|
A|-2----5----3--0----|
E|-0----3------------|


GUITARRA LIDER

  =========15X=========
E|---------------------|
B|---------------------|
G|--12-9-11----9-11----|   (15x)
D|----------12---------|
A|---------------------|
E|---------------------|


E|----------------------------------------|
B|----------------------------------------|
G|--12-9-11----9--------------------------|
D|----------12---11-12---9-11------9------|
A|-----------------------------12-----10--|
E|----------------------------------------|


/////////////////////////////////////////////////

REPETIR 2X

E|--------------------------------------|
B|--------------------------------------|
G|-------------------------------3------|
D|--------5---------7---------5--3---4--|
A|--------5---------7---------5--1---4--|
E|-0-0-0--3--0-0-0--5--0-0-0--3------2--|

E|--------------------------------------------|
B|--------------------------------------------|
G|----------------------------------3---------|
D|--------5---------7--------5------3---4---3-|
A|--------5---------7--------5------1---4---3-|
E|-0-0-0--3--0-0-0--5--0-0-0-3-0-0------2---1-|

/////////////////////////////////////////////

VERSO

REPETIR 2X

E|------------------|
B|------------------|
G|------------------|
D|-2------5----5----|
A|-2------5----5----|
E|-0------3----3----|

E|-------------------|
B|-------------------|
G|-----------5--2----|
D|-2----5----5--2----|
A|-2----5----3--0----|
E|-0----3------------|


Make his fight on the hill in the early day
Constant chill deep inside
Shouting gun, on they run through the endless grey
On the fight, for they are right, yes, but who's to say?
For a hill men would kill, why? they do not know
Suffered wounds test their pride
Men of five, still alive through the raging glow
Gone insane from the pain that they surely know

///////////////////////////////////////////////

CORO

REPETIR 2X

E|--------------------------------------|
B|--------------------------------------|
G|-------------------------------3------|
D|--------5---------7---------5--3---4--|
A|--------5---------7---------5--1---4--|
E|-0-0-0--3--0-0-0--5--0-0-0--3------2--|

E|--------------------------------------------|
B|--------------------------------------------|
G|----------------------------------3---------|
D|--------5---------7--------5------3---4---3-|
A|--------5---------7--------5------1---4---3-|
E|-0-0-0--3--0-0-0--5--0-0-0-3-0-0------2---1-|

For whom the bell tolls
Time marches on
For whom the bell tolls

///////////////////////////////////////////////////7


2DO SOLO


GUITARRA 1 (REPITE 2X)

E|--------------------------------------------|
B|--------------------------------------------|
G|--12--9--11----9----------------------------|
D|------------12---11--12--9--11------9-------|
A|-------------------------------12-----10--2-|
E|------------------------------------------0-|


E|--------------------------------------------|
B|--------------------------------------------|
G|--12--9--11----9----------------------------|
D|------------12---11--12--9--11------9-------|
A|-------------------------------12-----10----|
E|--------------------------------------------|


E|------------------------|
B|------------------------|
G|------------------------|
D|---5--5-5-5-5----5-5-5--|
A|---5--5-5-5-5----5-5-5--|
E|---3--3-3-3-3----3-3-3--|


E|--------------------------------------------|
B|--------------------------------------------|
G|--12-9-11-----9-----------------------------|
D|----------12-----11--12--9--11-----9--------|
A|--------------------------------12---10---9-|
E|------------------------------------------7-|


GUITARRA 2


E|--------------------------------------------|
B|------------------------------------12-12---|
G|--------------------12----------------------|
D|--------12-------14----14-14--12h14---------|
A|--14-12----12-14----------------------------|
E|--------------------------------------------|


E|--------------------------------------------|
B|-------------------------------------12-----|
G|--------------------12------------------12--|
D|--------12-------14----14-14--12h14---------|
A|--14-12----12-14----------------------------|
E|--------------------------------------------|


E|--------------------------------------------|
B|------------------------------------12-12---|
G|--------------------12----------------------|
D|--------12-------14----14-14--12h14---------|
A|--14-12----12-14----------------------------|
E|--------------------------------------------|

///////////////////////////////////////////////////////

VERSO 2



REPETIR 2X

E|------------------|
B|------------------|
G|------------------|
D|-2------5----5----|
A|-2------5----5----|
E|-0------3----3----|

E|-------------------|
B|-------------------|
G|-----------5--2----|
D|-2----5----5--2----|
A|-2----5----3--0----|
E|-0----3------------|


Take a look to the sky just before you die
It is the last time you will
Blackened roar massive roar fills the crumbling sky
Shattered goal fills his soul with a ruthless cry
Stranger now, are his eyes, to this mystery
He hears the silence so loud
Crack of dawn, all is gone except the will to be
Now the will see what will be, blinded eyes to see


/////////////////////////////////////////////////


///////////////////////////////////////////////

CORO

REPETIR 2X

E|--------------------------------------|
B|--------------------------------------|
G|-------------------------------3------|
D|--------5---------7---------5--3---4--|
A|--------5---------7---------5--1---4--|
E|-0-0-0--3--0-0-0--5--0-0-0--3------2--|

E|--------------------------------------------|
B|--------------------------------------------|
G|----------------------------------3---------|
D|--------5---------7--------5------3---4---3-|
A|--------5---------7--------5------1---4---3-|
E|-0-0-0--3--0-0-0--5--0-0-0-3-0-0------2---1-|

For whom the bell tolls
Time marches on
For whom the bell tolls

/////////////////////////////////////////////////

FINAL


E|----------------------------|
B|----------------------------|
G|----------------------------|  
D|--2---4-4---2---4-4---5-5---|
A|--2---4-4---2---4-4---5-5---|
E|--0---2-2---0---2-2---3-3---|