297 VISITAS

Foxy Lady

Jimi Hendrix

            
                               

INTRO

E|------------------------------------------|
B|------------------------------------------|
G|--/11v------------------------------------|
D|------------------------------------------|
A|------------------------------------------|
E|------------------------------------------|

RIFF PRINCIPAL

VARIACION 1

E|--------5------5----------------------------|
B|--------5------5----------------------------|
G|-------------------------------4------------|
D|-----------4-4----------4------4------------|
A|---------------------------0-2-2------------|
E|--2-2-------------2-2-----------------------|



VARIACION 2

E|------5-5------5------5--------------------|
B|------5-5------5------5--------------------|
G|---------------------------------4---------|
D|-----------4-4---------------4h7-4---------|
A|-------------------------4h7---------------|
E|-2-2--------------2-2----------------------|


VARIACION 3

E|------5------5--------5---5---------------|
B|------5------5--------5---5---------------|
G|------------------------------------------|
D|---------4-4----2-------------------------|
A|------------------4---------0-2-3-4-------|
E|-0-2----------------2---------------------|


VARIACION 4

E|------2-------2--------3-------------------|
B|------5-------5--------5-------------------|
G|-------------------------------4-----------|
D|-------------------------------4-----------|
A|---------------------------0-2-2-----------|
E|--2-2----2-2------2-2----------------------|


VARIACION 5

E|-------5-------0h2p0h2p0-------5------------|
B|-------5-----------------------5------------|
G|--------------------------------------------|
D|--------------------------------------------|
A|-----------------------------------0-2-3-4--|
E|--2-2----2-2---------------2-2--------------|

//////////////////////////////////////////////////

CORO 1



E|------------------------------------------|
B|------------------------------------------|
G|-3-3-3-3-3-3-3-3---1-1--------------------|
D|-4-4-4-4-4-4-4-4---2-2-------4------4-----|
A|-4-4-4-4-4-4-4-4---2-2---4h6----2h4-------|
E|-2-2-2-2-2-2-2-2---0-0--------------------|


E|------------------------------------------|
B|------------------------------------------|
G|-3-3-3-3-3-3-3-3---1-1--------------------|
D|-4-4-4-4-4-4-4-4---2-2--------------------|
A|-4-4-4-4-4-4-4-4---2-2---2-2-2-3----------|
E|-2-2-2-2-2-2-2-2---0-0--------------------|

E|------------------------------------------|
B|------------------------------------------|
G|--------3-3-3--1-1------------------------|
D|--------4-4-4--2-2--------4-6p4-----------|
A|--4-----2-2-2--2-2----/6---------6--4-----|
E|----2---2-2-2--0-0------------------2-----|


E|------------------------------------------|
B|------------------------------------------|
G|--16b--14--16b-16b-14---------------------|
D|----------------------16------------------|
A|------------------------------------------|
E|------------------------------------------|


//////////////////////////////////////////////////

CORO 2


E|-----------------------------------------------------|
B|-----------------------------------------------------|
G|-11-11-11-11-11-11-11-11----9--9--9--9---------------|
D|-11-11-11-11-11-11-11-11----9--9--9--9---------------|
A|--9--9--9--9--9--9--9--9---11-11-11-11---------------|
E|----------------------------------------7-7-7--9/11--|


E|-----------------------------------------------------|
B|-----------------------------------------------------|
G|-11-11-11-11-11-11-11-11----9--9--9--9---------------|
D|-11-11-11-11-11-11-11-11----9--9--9--9---------------|
A|--9--9--9--9--9--9--9--9---11-11-11-11------7------7-|
E|----------------------------------------/9-----/9----|

E|----------------------------------------------|
B|----------------------------------------------|
G|-3-3-3-3-3-3-3-3---1-1------------------------|
D|-4-4-4-4-4-4-4-4---2-2--------4-6p4-----------|
A|-4-4-4-4-4-4-4-4---2-2---/6---------6--4-4----|
E|-2-2-2-2-2-2-2-2---0-0-------------------2----|


//////////////////////////////////////////////////

SOLO

E|---------------------------------------------------|
B|---------------------17b(19)--r17------------------|
G|--16b-14-16b-14-------------------14---9b-r9-------|
D|----------------16----------------------------7b---|
A|-------------------------------------------------9-|
E|---------------------------------------------------|

E|------------------------------------------|
B|------------------------------------------|
G|-----9--11b-11b-11--11--9h11p9-----9-9----|
D|-/11---------------------------11---------|
A|------------------------------------------|
E|------------------------------------------|



E|----------14------14----14----14--17b(19)-17----|
B|-------14----17b-----17----14-------------------|
G|--16b-------------------------------------------|
D|------------------------------------------------|
A|------------------------------------------------|
E|------------------------------------------------|


E|--14----14h16p14------------------------------------|
B|-----17----------14-----14-17-----14-17------14-17--|
G|--------------------16b-------16b--------16b--------|
D|----------------------------------------------------|
A|----------------------------------------------------|
E|----------------------------------------------------|


E|------------------------------------------|
B|------14-b17------------------------------|
G|--16b-------------------------------------|
D|------------------------------------------|
A|------------------------------------------|
E|------------------------------------------|


E|-14---------------14-------------------------------------|
B|----17p14-----14-----17p14----14-------------------------|
G|-----------16--------------16----16p14----14-------------|
D|---------------------------------------16----16p14----14-|
A|---------------------------------------------------16----|
E|---------------------------------------------------------|



E|------------------------------------------|
B|------------------------------------------|
G|------------------------------------------|
D|------------------------------------------|
A|-16p14-----14-----------------------------|
E|--------17--------------------------------|