684 VISITAS

Fuel

Metallica

            
                               

intro


E|---------------------------------------------------|
B|---------------------------------------------------|
G|---------------------------------------------------|
D|---------------------------------------------------|
A|---------------------------------------------------|
E|-3p0-0-3p0-0-3p0--3p0-0-3p0-0-3p0------------------|

E|---------------------------------------------------|
B|---------------------------------------------------|
G|---------------------------------------------------|
D|---------------------------------------------------|
A|---------------------------------------------------|
E|-3p0-0-3p0-0-3p0--3p0-0-3p0-0-3p0--3p0-0-3p0-0-3p0-|

E|---------------------------------------------------|
B|---------------------------------------------------|
G|---------------------------------------------------|
D|-5/7-7-7-7\5-5/7-----------------------------------|
A|---------------------------------------------------|
E|-3/5-5-5-5\3-3/5-----------------------------------|

E|---------------------------------------------------|
B|---------------------------------------------------|
G|---------------------------------------------------|
D|---------------------------------------------------|
A|---------------------------------------------------|
E|-3p0-0-3p0-0-3p0--3p0-0-3p0-0-3p0--3p0-0-3p0-0-3p0-|

E|---------------------------------------------------|
B|---------------------------------------------------|
G|---------------------------------------------------|
D|-5/7-7-7-7\5---------------------------------------|
A|---------------------------------------------------|
E|-3/5-5-5-5\3---------------------------------------|

E|----------------------------------------------------|
B|----------------------------------------------------|
G|----------------------------------------------------|
D|-----7-7-7-5b--------7-7-7-5b--------7-7-7-5b-------|
A|-5h7----------7-5h7-----------7-5h7-----------7-5h7-|
E|----------------------------------------------------|

E|---------------------------------------------------|
B|---------------------------------------------------|
G|---------------------------------------------------|
D|-7-7-7-5b------------------------------------------|
A|-----------5h7-------------------------------------|
E|---------------------------------------------------|


E|---------------------------------------------------|
B|---------------------------------------------------|
G|---------------------------------------------------|
D|---------------------------------------------------|
A|---------------------------------------------------|
E|-3p0-0-3p0-0-3p0-3p0-0-3p0-0-3p0-------------------|


/////////////////////////////////////////////////////////////


VERSOS
  X2

E|---------------------------------------------------|
B|------14-14-14-12-----------14-14-14-12------------|
G|------14-14-14-12-----------14-14-14-12------------|
D|-2-5---------------14-12h14------------14-12\------|
A|-2-5-----------------------------------------------|
E|-0-3-----------------------------------------------|

E|---------------------------------------------------|
B|---------------------------------------------------|
G|---------------------------------------------------|
D|-2-9-8-7-------------------------------------------|
A|-2-9-8-7-------------------------------------------|
E|-0-7-6-5-------------------------------------------|

E|----------------------------------------------------|
B|----------------------------------------------------|
G|----------------------------------------------------|
D|-----7-7-7-5b--------7-7-7-5b--------7-7-7-5b-------|
A|-5h7----------7-5h7-----------7-5h7-----------7-5h7-|
E|----------------------------------------------------|

E|---------------------------------------------------|
B|---------------------------------------------------|
G|---------------------------------------------------|
D|-7-7-7-5b------------------------------------------|
A|-----------5h7-------------------------------------|
E|---------------------------------------------------|

E|---------------------------------------------------|
B|---------------------------------------------------|
G|---------------------------------------------------|
D|---------------------------------------------------|
A|---------------------------------------------------|
E|-3p0-0-3p0-0-3p0--3p0-0-3p0-0-3p0--3p0-0-3p0-0-3p0-|

E|---------------------------------------------------|
B|---------------------------------------------------|
G|---------------------------------------------------|
D|---------------------------------------------------|
A|---------------------------------------------------|
E|-3p0-0-3p0-0-3p0-3p0-0-3p0-0-3p0--3p0-0-3p0-0-3p0--|


////////////////////////////////////////////////////////////7


CORO


E|---------------------------------------------------|
B|---------------------------------------------------|
G|---------------------------------------------------|
D|-2p0---2-2-----2p0---2-2---------------------------|
A|---------------------------0-----------------------|
E|-----0-----0-0-----0-----0-------------------------|


E|---------------------------------------------------|
B|---------------------------------------------------|
G|---------------------------------------------------|
D|-2p0---2-2-----2p0---2-2---------------------------|
A|-----0-----0-0-----0-----0-------------------------|
E|---------------------------0-----------------------|

E|---------------------------------------------------|
B|---------------------------------------------------|
G|---------------------------------------------------|
D|-2p0---2-2-----2p0---2-2---------------------------|
A|---------------------------0-----------------------|
E|-----3-----3-3-----3-----3-------------------------|

E|---------------------------------------------------|
B|---------------------------------------------------|
G|---------------------------------------------------|
D|-2p0---2-2-----2p0---2-2---------------------------|
A|-----0-----0-0-----0-------------------------------|
E|-------------------------0-0-----------------------|

E|---------------------------------------------------|
B|---------------------------------------------------|
G|---------------------------------------------------|
D|-5p2---2-2-----5p2---2-2---------------------------|
A|---------------------------0-----------------------|
E|-----0-----0-0-----0-----0-------------------------|

E|---------------------------------------------------|
B|---------------------------------------------------|
G|---------------------------------------------------|
D|-5p2---2-2-----5p2---2-2---------------------------|
A|-----0-----0-0-----0-----0-3-----------------------|
E|---------------------------------------------------|

E|---------------------------------------------------|
B|---------------------------------------------------|
G|---------------------------------------------------|
D|-5p2---2-2-----5p2---2-2---------------------------|
A|-----3-----3-3-----3-----3-5-----------------------|
E|---------------------------------------------------|

E|---------------------------------------------------|
B|---------------------------------------------------|
G|---------------------------------------------------|
D|-7p4---4-4-----7p4---4-4-4\------------------------|
A|-----5-----5-5-----5-------------------------------|
E|---------------------------------------------------|

E|---------------------------------------------------|
B|---------------------------------------------------|
G|---------------------------------------------------|
D|---------------------------------------------------|
A|---------------------------------------------------|
E|-3p0-0-3p0-0-3p0-3p0-0-3p0-0-3p0-------------------|

////////////////////////////////////////////////////////////


PRESOLO

  X4
E|---------------------------------------------------|
B|---------------------------------------------------|
G|---------------------------------------------------|
D|-7-7-7-5-------------7-7-7-5--------5--------------|
A|-7-7-7-5-7\-2-2-2-2--7-7-7-5-7\-2-2-5--------------|
E|-5-5-5---7\-0-0-0-0--5-5-5---7\-0-0-3--------------|


////////////////////////////////////////////////////////////

SOLO

 X4
E|---------------------------------------------------|
B|-14-14-14-12~--------------14-14-14-12~------------|
G|-14-14-14-12~-------12-----14-14-14-12~-------12b--|
D|--------------12h14-----14~------------12h14-------|
A|---------------------------------------------------|
E|---------------------------------------------------|


E|---------------------------------------------------|
B|---------------------------------------------------|
G|-------14-14-14-12b------------14-14-14-12b--------|
D|-12h14---------------14-12h14----------------------|
A|---------------------------------------------------|
E|---------------------------------------------------|

E|---------------------------------------------------|
B|---------------------------------------------------|
G|-----------14-14-14-12b----------------------------|
D|-14-12h14----------------14-12h14------------------|
A|---------------------------------------------------|
E|---------------------------------------------------|

E|---------------------------------------------------|
B|---------------------------------------------------|
G|--14b16r14-12-14b16r14-12-14b16r14-----------------|
D|---------------------------------------------------|
A|---------------------------------------------------|
E|---------------------------------------------------|

E|---------------12------------15b17-15-14-15p14----------------|
B|-15b17r15b17~--15b17r15b17~--------------------15-------------|
G|--------------------------------------------------14-12\11----|
D|-----------------------------------------------------------12~|
A|--------------------------------------------------------------|
E|--------------------------------------------------------------|

E|---------------------------------------------------|
B|-------------------------15-15p14----14------------|
G|----------12----12-14/16----------16----14h16------|
D|-12-12/14----14------------------------------------|
A|---------------------------------------------------|
E|---------------------------------------------------|

E|-----------14-15-17-17b19r17-17-15-----------------|
B|-14-15-17---------------------------17-17\---------|
G|---------------------------------------------------|
D|---------------------------------------------------|
A|---------------------------------------------------|
E|---------------------------------------------------|


E|-7/9-7~-7/9-7~-------------------------------------|
B|---------------------------------------------------|
G|-7/9-7~-7/9-7~--4r2-4r2-4r2-2p0--------------------|
D|--------------------------------2p0-2~\------------|
A|---------------------------------------------------|
E|---------------------------------------------------|


E|-7/9-7~-7/9-7~--9-9/12~-12/16~-16~-16\-------------|
B|---------------------------------------------------|
G|-7/9-7~-7/9-7~--9-9/12~-12/16~-16~-16\-------------|
D|---------------------------------------------------|
A|---------------------------------------------------|
E|---------------------------------------------------|

E|-----0----------0---------0---------0---------0---------|
B|-------3p0-3b5----3p0-------3p0-3b5---3p0-------3p0-3b5-|
G|-2b4------------------2b4-----------------2b4-----------|
D|--------------------------------------------------------|
A|--------------------------------------------------------|
E|--------------------------------------------------------|

E|-0-----3p0----0----0-------------------------------|
B|---3p0-----3b---3b---------------------------------|
G|---------------------------------------------------|
D|---------------------------------------------------|
A|---------------------------------------------------|
E|---------------------------------------------------|

E|--------------------------------------------------------------|
B|--------7-8p7-------7-8/10------7h8-8/10--8/7-8-7h8p7----7----|
G|--/9--9-------9---9--------9--9-----------------------9-----9-|
D|--------------------------------------------------------------|
A|--------------------------------------------------------------|
E|--------------------------------------------------------------|

E|------------------------------------------------------------|
B|--------7-8p7-------7-8/10-----8p7-8--7h8p7---7---7-8-8/10--|
G|--/9--9-------9---9--------9----------------9---9-----------|
D|------------------------------------------------------------|
A|------------------------------------------------------------|
E|------------------------------------------------------------|



E|--------------------------------------------------------------|
B|--------7-8p7-------7-8/10------7h8-8/10--8/7-8-7h8p7----7----|
G|--/9--9-------9---9--------9--9-----------------------9-----9-|
D|--------------------------------------------------------------|
A|--------------------------------------------------------------|
E|--------------------------------------------------------------|




E|--------------------------------------------------------------|
B|--------7-8p7-------7-8/10------7-8-8/10-10-10-10-10-10-10-10-|
G|--/9--9-------9---9--------9--9-------------------------------|
D|--------------------------------------------------------------|
A|--------------------------------------------------------------|
E|--------------------------------------------------------------|

E|---------------------------------------------------|
B|-12-12-12-12-12-12-12-12-15b-----------------------|
G|---------------------------------------------------|
D|---------------------------------------------------|
A|---------------------------------------------------|
E|---------------------------------------------------|