456 VISITAS

Irresponsables

Babasonicos

            
                               

E|------------------------------------------|
B|------------------------------------------|
G|------------------------------------------|
D|------------------------0-2-2-2-----------|
A|------------------0h1h2-------------------|
E|---/0----0-3-0-3--------------------------|

E|-------------------0--------0---------0---|
B|------------------------------------------|
G|---0--2-2----2b(4)--- 2b(4)----2b(4)------|
D|-2----------------------------------------|
A|------------------------------------------|
E|------------------------------------------|


E|------------------------------------------|
B|------------------------------------------|
G|--2b(4)---(4)--(4)r2p0--------------------|
D|-----------------------2-2----------------|
A|------------------------------------------|
E|------------------------------------------|




       Em                                                       
Somos culpables de este amor escandaloso
              Am                       
que el fuego mismo de pasion alimento
             D                         C
que en el remanso de la noche impostergable
          Am                   B
nos averguenza seguir sintiendolo


Pre coro:
        Em    D C
Poco a Poco
            D        Em
Fuimos volviendonos locos


E|------------------------------------------|
B|------------------------------------------|
G|------------------------------------------|
D|--2----0h2h0------0----2------------------|
A|---------------3--------------------------|
E|------------------------------------------|



Coro:
D                        G
Y ese vapor de nuestro amor
                      Am
nos embriago con su licor
   B                        C
y culpa al carnaval interminable
     Am
nos hizo confundir
         B
irresponsables


VERSO 2

  (LICK 1)
E|------------------------------------------|
B|------------------------------------------|
G|--------------------------0h2-------------|
D|------------0-2--2--0-2-------------------|
A|------0-1-2-------------------------------|
E|--0-3-------------------------------------|
  
  (LICK 2)
E|------------------------------------------|
B|------------------------------------------|
G|--2b(4)--2--------------------------------|
D|------------0--2--------------------------|
A|------------------------------------------|
E|------------------------------------------|

  (LICK 3)
E|------------------------------------------|
B|------------------------------------------|
G|--2b(4)r2p0-------------------------------|
D|------------2-2---------------------------|
A|------------------------------------------|
E|------------------------------------------|

  (LICK 4)
E|------------------------------------------|
B|------------------------------------------|
G|-2b(4)2b(4)2b(4)2b(4)2b(4)2b(4)-----------|
D|------------------------------------------|
A|------------------------------------------|
E|------------------------------------------|

                                        
Si fuimos carne de la intriga casquivana   (LICK 1)
que la imprudencia del rumor hoy desato    (LICK 2)
y descubiertos por la luz de la mañana     (LICK 3)
nos castigaron la desidia y el dolor       (LICK 4)




Pre coro:
        Em    D C
Poco a Poco
            D        Em
Fuimos volviendonos locos


Coro:
D                        G
Y ese vapor de nuestro amor
                      Am
nos embriago con su licor
   B                        C
y culpa al carnaval interminable
     Am
nos hizo confundir
         B
irresponsables


SOLO


E|---------10---------10-------------10-------------------|
B|--10b(12)----10b(12)----10--10-10b(12)r10p8---------8---|
G|--------------------------------------------9-9---9-----|
D|--------------------------------------------------------|
A|--------------------------------------------------------|
E|--------------------------------------------------------|


E|------12-----------12--------12-----------12-----------12------|
B|--10b(12)r12---10b(12)---10b(12)r12---10b(12)r12---10b(12)--10-|
G|---------------------------------------------------------------|
D|---------------------------------------------------------------|
A|---------------------------------------------------------------|
E|---------------------------------------------------------------|

E|-------------------10----10---------------------|
B|---10b(12)---10b(12)-(12)--r10p8----8---8-------|
G|----------------------------------9---9---------|
D|------------------------------------------------|
A|------------------------------------------------|
E|------------------------------------------------|


E|------------------------------------------|
B|--10---10b(12)--10b(12)--10b(12)r10p8-----|
G|--------------------------------------9-9-|
D|------------------------------------------|
A|------------------------------------------|
E|------------------------------------------|


E|------10------------------10----10-----------10------|
B|--10b(12)r10-------10b(12)--(12)---r10p8-----10b(12)-|
G|-----------------------------------------9-----------|
D|-----------------------------------------------------|
A|-----------------------------------------------------|
E|-----------------------------------------------------|


E|--10-------10-------10-------10------10-------------|
B|--10b(12)--10b(12)--10b(12)--10b(12)-10b(12)--------|
G|----------------------------------------------------|
D|----------------------------------------------------|
A|----------------------------------------------------|
E|----------------------------------------------------|




Pre coro:
        Em    D C
Poco a Poco
            D        Em
Fuimos volviendonos locos


Coro:
D                        G
Y ese vapor de nuestro amor
                      Am
nos embriago con su licor
   B                        C
y culpa al carnaval interminable
     Am
nos hizo confundir
         B
irresponsables