465 VISITAS

It’s a long way to the top

AC DC

            
                               


E|-----------------------------------------|
B|-----------------------------------------|
G|-0h2-----2-----2-------------------------|
D|-0h2-----2-----2-------------------------|
A|-0-------0-----0-------------------------|
E|-----------------------------------------|



E|-----------------------------------------------------|
B|-----------------------------------------------------|
G|-----------------------------------------------------|
D|-----5~------2---------------------------------------|
A|-5/7-----7\5-0---------------------------------------|
E|-----------------------------------------------------|


 A5
Ridin' down the highway
Goin' to a show
Stop in all the byways
Playin' rock 'n' roll


E|-5----5----------------------------------------------|
B|-5----5----------------------------------------------|
G|-----------------------------------------------------|
D|-----------------------------------------------------|
A|-----------------------------------------------------|
E|-----------------------------------------------------|

Gettin' robbed
Gettin' stoned
Gettin' beat up

Broken boned
Gettin' had
Gettin' took
I tell you folks
It's harder than it looks



CORO
        A5              G5
It's a long way to the top
        D              A5
if you wanna rock 'n' roll
        A5              G5
It's a long way to the top
        D              A5
if you wanna rock 'n' roll




PUENTE

A5
If you think it's easy doin' one night stands
D
  Try playin' in a rock roll band
        G5              D
It's a long way to the top
                       A5
if you wanna rock 'n' roll

SOLO

Gaita
E|-----------------------------------------------|
B|---/10---12-10-8-10--12-10-8-10---8-10-8-7-----|
G|-----------------------------------------------|
D|-----------------------------------------------|
A|-----------------------------------------------|
E|-----------------------------------------------|

E|-----------------------------------------------|
B|---7-8-10---12-10-8-10--12-10-8-10---8-10-8-7--|
G|-----------------------------------------------|
D|-----------------------------------------------|
A|-----------------------------------------------|
E|-----------------------------------------------|


Guitarra

  x3
E|-----5~--5/------------------------------------------|
B|-----------------------------------------------------|
G|-5/6-------------------------------------------------|
D|-----------------------------------------------------|
A|-----------------------------------------------------|
E|-----------------------------------------------------|

 
 G - D - A

E|-----------------------------------------------------|
B|-13b(15)---12b(14)--10--12------10~------10~\--------|
G|----------------------------11--------11-------------|
D|-----------------------------------------------------|
A|-----------------------------------------------------|
E|-----------------------------------------------------|



 G - D - A


E|-----------------------------12-15-12----------------|
B|-15b(17)r15p12-15b17-15b17~------------15-14-12------|
G|------------------------------------------------14~--|
D|-----------------------------------------------------|
A|-----------------------------------------------------|
E|-----------------------------------------------------|

 G - D - A

E|-----------------------------------------------------|
B|-12b14--12b14--10~---12b14-12b14-10------------------|
G|-----------------------------------------------------|
D|-----------------------------------------------------|
A|-----------------------------------------------------|
E|-----------------------------------------------------|


E|-------15--------------------------------17----15b---|
B|-15b17----(b17)--15b(17)r15p12-15b(17)------17-------|
G|-----------------------------------------------------|
D|-----------------------------------------------------|
A|-----------------------------------------------------|
E|-----------------------------------------------------|


E|-----------------------------------------------------|
B|-----------------------------------------------------|
G|-----------------------------------------------------|
D|-----------------------------------------------------|
A|-16p14\-12~------------------------------------------|
E|-----------------------------------------------------|




Hotel motel
Make you wanna cry
Lady do the hard sell
Know the reason why

E|-5----5----------------------------------------------|
B|-5----5----------------------------------------------|
G|-----------------------------------------------------|
D|-----------------------------------------------------|
A|-----------------------------------------------------|
E|-----------------------------------------------------|


Gettin' old
Gettin' grey
Gettin' ripped off

Under-paid
Gettin' sold
Second hand
That's how it goes
Playin' in a band




       A5              G5
It's a long way to the top
        D              A5
if you wanna rock 'n' roll
        A5              G5
It's a long way to the top
        D              A5
if you wanna rock 'n' roll


PUENTE


If you wanna be a star of stage and screen
D
  Look out it's rough and mean


        G5              D
It's a long way to the top
                       A5
if you wanna rock 'n' roll
        G5              D
It's a long way to the top
                       A5
if you wanna rock 'n' roll
        G5              D
It's a long way to the top
                       A5
if you wanna rock 'n' roll
        G5              D
It's a long way to the top
                       A5
if you wanna rock 'n' roll

Well it's a long way
It's a long way 
(you should've told me)
It's a long way 
(such a long way)