2260 VISITAS

La balada del diablo y la muerte

La renga

            
                               


INTRO 

E|------0-------------------------3p2-----------  |
B|------0----------------------3--3----3--------  |
G|------0-----0----------------2---------2------  |
D|------2-----2--0h2p0----0-0-------------------  |
A|----2----------------2-------------------0----  |
E|--0------3------------------------------------  | REPETIR 
						  | 2X
E|----------------------------------------------  |
B|-2--2-----------------------------------------  |
G|-2--2-----------------------------------------  |
D|-2--2---2h4p2---------------------------------  |  
A|-0--0---------4/------------------------------  |
E|----------------------------------------------  |

E|------0-------------------------3p2-----------  
B|------0----------------------3--3----3---2----  
G|------0-----0----------------2---------2-2----  
D|------2-----2--0h2p0----0-0--------------2----  
A|----2----------------2-------------------0----  
E|--0------3------------------------------------  


VERSO

        MIm             SOL
Estaba el diablo mal parado 
             RE            LA
en la esquina de mi barrio
      MIm                SOL
Ahí donde dobla el viento
          RE            LA
y se cruzan los atajos.

            MIm                 SOL
Al lado de el estaba la muerte
                RE           LA
con una botella en la mano,
         MIm           SOL
me miraba de reojo 
          RE         LA
y se reían por lo bajo.

         MIm                           SOL
Y yo que esperaba no se a quien
         RE                         LA
al otro lado de la calle del otoño
       MIm            SOL
una noche de bufanda
                 RE           LA
que me encontró desvelado
           MIm               SOL
entre dientes, oí a la muerte 
            RE       LA     SI
que decía, que decía así





CORO

A,C,G: ▼▼▼-▼▲
D: ▼-▲▲-▲▼▲

       LA                         DO
Cuantas veces se abra escapado
       SOL             RE
como laucha por tirante
       LA                          DO
y esta noche que no cuesta nada,
       SOL        RE
ni siquiera fatigarme

      LA                       DO
podemos llevarnos un cordero 
      SOL  RE               LA
con solo cruzar la calle



VERSO 2

Yo me escondí tras la niebla
y mire al infinito
a ver si llegaba ese 
que nunca iba a venir.

Estaba el diablo mal parado
en la esquina de mi barrio
al lado de el estaba la muerte
con una botella en la mano.....


SOLO


E|----------------------------------------------------
B|-----10b(12)---r10p8-10----8/7-7h8/15---------------
G|---9------------------------------------------------
D|----------------------------------------------------
A|----------------------------------------------------
E|----------------------------------------------------


E|-0--------------0--------------0--------------------
B|-------------5--------------3-----------------------
G|---2b(3)r2p0------2b(3)r2p0------2b(3)r2p0--2p0-----
D|----------------------------------------------------
A|----------------------------------------------------
E|----------------------------------------------------


E|------------------------------------10--10----------
B|----------------------/8-8-8-8--10b-----10b---------
G|--2p0--2/3/2p0--2p0---------------------------------
D|----------------------------------------------------
A|----------------------------------------------------
E|----------------------------------------------------

E|--------------------------10------------------------
B|---10b(12)r10p8-10--8/7-8-----8p7--8p7--------------
G|----------------------------------------------------
D|----------------------------------------------------
A|----------------------------------------------------
E|----------------------------------------------------

  x3
E|-10p7-----10p7-----10p7-----10p7----|--10b(12)------
B|------8p7------8p7------8p7-----8p7-|---------------
G|------------------------------------|------------/--
D|------------------------------------|------------/--
A|------------------------------------|------------/--
E|------------------------------------|---------------

E|-----------------------------------------------------
B|-10--12--13-12-10-12-13-12-10-12/--------------------
G|-----------------------------------------------------
D|-----------------------------------------------------
A|-----------------------------------------------------
E|-----------------------------------------------------

E|-----12-14-15p14p12--15b(17)r15b(17)-----------------
B|-15b-------------------------------------------------
G|-----------------------------------------------------
D|-----------------------------------------------------
A|-----------------------------------------------------
E|-----------------------------------------------------


E|----15-17-17b(19)--17b(19)r17p15--17--17b(19)-17-15--
B|-17--------------------------------------------------
G|-----------------------------------------------------
D|-----------------------------------------------------
A|-----------------------------------------------------
E|-----------------------------------------------------

E|------------------------------------12/11/10---
B|--17-17b(19)r17--15/12--15-15b(17)--12/11/10---
G|------------------------------------12/11/10---
D|------------------------------------12/11/10---
A|-----------------------------------------------
E|-----------------------------------------------

VERSO 3

Y temblando como una hoja 
me cruce para encararlos
y le dije, me parece que esta vez
me dejaron bien plantado

Les pedí fuego y del bolsillo
saque una rama pa´convidarlos
Y bajo un árbol del otoño
nos quedamos chamullando.

(DISTORSION)
MI5
Me contaron de sus vidas,
SOL5
sus triunfos y sus fracasos
RE5
de que el mundo estaba loco
LA5
y hasta el cielo fue comprado

MI5               SOL5
y mas miedo que ellos dos
RE5               LA5   SI5
me daba el propio ser humano


CORO


      LA5                         DO5
y yo ya no esperaba a nadie
          SOL5                       RE5
y entre las risas del aquelarre
     LA5              DO5
el diablo y la muerte 
           SOL5          RE5
se me fueron amigando.

     LA5                  DO5
Ahí donde dobla el viento 
          SOL5            RE5
y se cruzan los atajos.
      LA5                   DO5
Ahí donde brinda la vida
            SOL5              RE5 ----LA5
en la esquina de mi barrio.


FINAL

MI5- SOL5- RE5- LA5 X4  

FINALIZA EN  "MI"