572 VISITAS

Las cosas que hace

La renga

            
                               


Intro :  DO#5 - SI5 - SOL#5 - FA#5

▼▼-▲▼▲-▼▲-▲▼▲


VERSO:

MI5
Ella vive en el, en el palacio de la risa y el dolor, 
                      FA#5
Y me hace señas porque yo la estoy mirando
                  MI5
Y no tengo a dónde ir

Se que me dirá que estaba sola porque nunca me encontró
                 FA#5
Y porque ella ha besado la muerte
                       MI5
Con los labios del corazón




PRE-CORO:

DO#5
Ese pobre corazón que se muere por vivir,

MI5 
Las cosas que hace, se manda con todo a todo

DO#5
Siempre le fue al riesgo fiel Y ha tratado sin razón

MI5 
De poderla convencer, que no trate de pensar

DO#5
Que la acepte como es, que por eso la eligió

SOL#5
Quien fuera su gran mentor

                         MI5 
Lo ha dotado con el filo aquel



ESTRIBILLO:

(RIFF 1)

E|-------------------------|
B|-------------------------|  
G|--6-4--------------------|   
D|-------7-6-4-6-4---------|
A|------------------7------|
E|-------------------------|


(RIFF 1)                      DO#5
Que sangra las venas del amor

MI5 
Él,
 
(RIFF 1)                      DO#5
el que te ha sabido desbocar,

  MI5 
A vos, que lo lle-
(RIFF 1)                        DO#5
vás con tanta fiebre en la piel

MI5 
Vos 

(RIFF 1)                        DO#5
que cargas sus penas por error    

  SI5    SOL#5  FA#5
error



VERSO:

MI5
yo ya vivo en el, en el palacio de la risa y el dolor
                       FA#5
Y te hago señas porque yo te estoy mirando
                 MI5
Y no tenés donde ir

Te voy a decir que estaba solo porque nunca te encontré
                      FA#5
Y porque yo también he besado a la muerte
                       MI5
Con los labios del corazón



PRE-CORO:

DO#5
Ese pobre corazón que se muere por vivir,

MI5 
Las cosas que hace, se manda con todo a todo

DO#5
Siempre le fue al riesgo fiel Y ha tratado sin razón

MI5 
De poderme convencer, que no trate de pensar

DO#5
Que la acepte como es, que por eso me eligió

SOL#5
Quien fuera su gran mentor

                         MI5
Lo ha dotado con el filo aquel


CORO:




(RIFF 1)                      DO#5
Que sangra las venas del amor

MI5 
Él, 


(RIFF 1)                      DO#5
el que te ha sabido desbocar,

  MI5 
A vos, que lo lle-

(RIFF 1)                         DO#5
vás con tanta fiebre en la piel

MI5 
Vos 


(RIFF 1)                       DO#5
que cargas sus penas por error    

  SI5    SOL#5  FA#5
error



SOLO:

E|-----------------9-------------9-12-9-----------------------|
B|--------------------12---9-12----------12-9-12-9------------|
G|--------9--11-9-----------------------------------11-11/12~~|
D|-9--11------------------------------------------------------|
A|------------------------------------------------------------|
E|------------------------------------------------------------|

E|-----------------9-------------12-9-------9-----------------|
B|--------------------12---9-12--------12-9---12-9------------|
G|--------9--11-9-----------------------------------11-11/12~~|
D|-9--11------------------------------------------------------|
A|------------------------------------------------------------|
E|------------------------------------------------------------|


PRE-CORO:

DO#5
Ese pobre corazón que se muere por vivir,

MI5 
Las cosas que hace, se manda con todo a todo

DO#5
Siempre le fue al riesgo fiel Y ha tratado sin razón

MI5 
De poderme convencer, que no trate de pensar

DO#5
Que la acepte como es, que por eso me eligió

SOL#5
Quien fuera su gran mentor

                         MI5
Lo ha dotado con el filo aquel


CORO:

(RIFF 1)                      DO#5
Que sangra las venas del amor

MI5 
Él, 


(RIFF 1)                      DO#5
el que te ha sabido desbocar,

  MI5 
A vos, que lo lle-

(RIFF 1)                         DO#5
vás con tanta fiebre en la piel

MI5 
Vos 


(RIFF 1)                       DO#5
que cargas sus penas por error    

  SI5    SOL#5  FA#5
error