1054 VISITAS

Let there be rock

AC/DC

            
                               

INTRO


E|--------------------------------------------------------
B|--------------------------------------------------------
G|--0-------------0--------------0---2---0----------------
D|--0-2-2-2-2-2-2-0-2-2-2-2-2-2--0-2-2-2-0-2-2-2-2-2-2-2--
A|--2-2-2-2-2-2-2-2-2-2-2-2-2-2--2-2-0-2-2-2-2-2-2-2-2-2--
E|--3-0-0-0-0-0-0-3-0-0-0-0-0-0--3-0---0-3-0-0-0-0-0-0-0--


E|--------------------------------------------------------
B|--2-2---X-X--X---2-2--X-X--X--2-2--X-X--X--2-2--X-X--X--
G|--2-2---X-X--X---2-2--X-X--X--2-2--X-X--X--2-2--X-X--X--
D|--2-2---X-X--X---2-2--X-X--X--2-2--X-X--X--2-2--X-X--X--
A|--0-0---X-X--X---0-0--X-X--X--0-0--X-X--X--0-0--X-X--X--
E|--------------------------------------------------------

E|--------------------------------------------------------
B|--------------------------------------------------------
G|--4-4---X-X--X---4-4--X-X--X--4-4--X-X--X--4-4--X-X--X--
D|--4-4---X-X--X---4-4--X-X--X--4-4--X-X--X--4-4--X-X--X--
A|--2-2---X-X--X---2-2--X-X--X--2-2--X-X--X--2-2--X-X--X--
E|--------------------------------------------------------


SOLO 1


E|--------------------------------------------
B|--------------------------------------------
G|---------------------5-7-7(9)r7p5-7-5-------
D|---7-7-7/-7-7-7/---7------------------------
A|--------------------------------------------
E|--------------------------------------------

E|----------------------------------------------------
B|----------------------------------------------------
G|----5-7--7(9)r7p5--7---5-7-7(9)r7p5-7---5-5-----5---
D|--7------------------7----------------7-----7-7-----
A|----------------------------------------------------
E|----------------------------------------------------

E|----------------------------------------------------
B|----------------------------------------------------
G|----5-5---5-5---5-5---5-5---5---5-5---5-5---5-5-----
D|--7-----7-----7-----7-----7---7-----7-----7---------
A|----------------------------------------------------
E|----------------------------------------------------

E|----------------------------------------------------
B|----------------------------------------------------
G|----5-5---5-5---5-5---5-5---5---5-5---5-5---5-5-----
D|--7-----7-----7-----7-----7---7-----7---------------
A|----------------------------------------------------
E|----------------------------------------------------

E|----------------------------------------------------
B|----------------------------------------------------
G|--7---7-7---7-7---7-7---7-7---7---7-7---7-7---------
D|----9-----9-----9-----9-----9---9-----9-----9-------
A|----------------------------------------------------
E|----------------------------------------------------

E|----------------------------------------------------
B|----------------------------------------------------
G|--7-7---7-7----7-7----------------------------------
D|------9-----9------9--------------------------------
A|----------------------------------------------------
E|----------------------------------------------------

E|----------17-------------------------------------
B|--20b(22)----20p17-------------------------------
G|-------------------17-17----19-17----19-17b------
D|-------------------------19-------19--------19---
A|-------------------------------------------------
E|-------------------------------------------------


E|--5----5-5-5----5-5----5-5----5-5----5-5---5-----
B|----8b-------8b-----8b-----8b-----8b-----8b------
G|-------------------------------------------------
D|-------------------------------------------------
A|-------------------------------------------------
E|-------------------------------------------------

E|--9h10-------------------------------------------
B|--8----------------------------------------------
G|--9----------------------------------------------
D|-------------------------------------------------
A|-------------------------------------------------
E|-------------------------------------------------



SOLO 2



E|-------------|---------------------------------------
B|-------------|---------------------------------------
G|-------------|---------------------------------------
D|-------------|-----------2-2--4-4--5-5--4-4--2-2-----
A|--0-0--3-4---|--0-0-/4-4-------------------------4-4-
E|-------------|---------------------------------------


E|-----------------------------------------------------
B|-----------------------------------------------------
G|---------------------4-4-----------------------------
D|------------4-4--6-6-----6-6--4-4--------------------
A|--2-2--/6-6------------------------6-6---------------
E|-----------------------------------------------------


E|------9--9--8-------8-------8-------8-------8---------
B|----8---------10------10------10------10------10------
G|--9--------------11------11------11------11------11---
D|------------------------------------------------------
A|------------------------------------------------------
E|------------------------------------------------------


E|--8-------8-------8--------8-----8--------------------
B|----10------10------10--------------------------------
G|-------11------11------11-----11----------------------
D|------------------------------------------------------
A|------------------------------------------------------
E|------------------------------------------------------


E|--12--/-12---------------------------------------
B|--14--/-15---------------------------------------
G|-------------------------------------------------
D|-------------------------------------------------
A|-------------------------------------------------
E|-------------------------------------------------


//////////////////////////////////////////////////////////////


               x3
E|-------|--------------|---------------------------------
B|-------|--------------|---------------------------------
G|-7b(9)-|-7b(9)--7b(9)-|--7b(9)r7p5-6----7b(9)-5-6-------
D|-------|-------------.|--------------7------------7-----
A|-------|--------------|---------------------------------
E|-------|--------------|---------------------------------

E|---------------------------------------------------------
B|---------------------------------------------------------
G|-5h6---5h6---5h6---5h6p5---------------------------------
D|-----7-----7-----7-------7-7--9b(10)r9-7-7--9b(10)r9-7-7-
A|---------------------------------------------------------
E|---------------------------------------------------------


E|-------------------|---------|----5---------------------
B|-------------------|-5b---7--|-7--5--7--5b--------------
G|-9b(11)9r-7--5---7-|-5b---7--|-7--5--7--5b--------------
D|---------------7---|----7----|-------------7------------
A|-------------------|---------|--------------------------
E|-------------------|---------|--------------------------


E|----------5--5------------------------------------------
B|------5-7----5-5----------5b-------5--------------------
G|--5h6------------7b(9)r7--5b-------5--------------------
D|------------------------------7--7----------------------
A|--------------------------------------------------------
E|--------------------------------------------------------


E|--------------------------------------------------------
B|--/8-8-8-8--/8-8-8-/8-8-8-/8-8-8-/8-8-8-/8-8-8-/8-8-8---
G|--/9-9-9-9--/9-9-9-/9-9-9-/9-9-9-/9-9-9-/9-9-9-/9-9-9---
D|--------------------------------------------------------
A|--------------------------------------------------------
E|--------------------------------------------------------


E|-------------7------------------------------------------
B|--7b-----------10p7---7-7b------------------------------
G|--7b---7-9b---------9---7b-----9-7----------------------
D|-----9----------------------7------9---7-9--------------
A|-------------------------------------9------------------
E|--------------------------------------------------------


E|--------------|---------|-----------------------
B|--7b----9--7--|--7-7----|-----------------------
G|--7b----9--7--|--7-8----|-----------------------
D|------7-------|------9--|-----------------------
A|--------------|---------|-----------------------
E|--------------|---------|-----------------------

E|----|----|------|-------------------------------
B|-7--|-9--|--10--|-10-12-13-12-14-13-15-14-------
G|-8--|-9--|--11--|-11-13-14-13-15-14-16-15-------
D|----|----|------|-------------------------------
A|----|----|------|-------------------------------
E|----|----|------|-------------------------------

E|------------------------------------------------
B|--16-16-16-16-16-16-16-16-17-17-17-17-17-17-17--
G|--16-16-16-16-16-16-16-16-16-16-16-16-16-16-16--
D|------------------------------------------------
A|------------------------------------------------
E|------------------------------------------------