296 VISITAS

Love me two times

the doors

            
                               


E|--------------------------------------------------|
B|--------------------------------------------------|
G|--------------------0h1p0h1p0h1------0h1p0h1p0h1--|
D|----0---2---0-2-----------------------------------|
A|--2---2---0---------------------------------------|
E|----------------0-0--------------0-0--------------|



E|------5--------------------------------------------
B|---5--5----8---------------------------------------
G|---6-----6-----------------------------------------
D|---7-----------------------------------------------
A|---------------------------------------------------
E|---------------------------------------------------


D7

E|-----0----------0-----0----------0-----------------
B|-------3p1----1---------3b---3p1-------------------
G|--2---------2------2-------2-------2p0-------------
D|---------------------------------------------------
A|---------------------------------------------------
E|---------------------------------------------------


CORO


     C7           G   D7sus2   C7    B7
E|--6-6-6-6-6-|--3-3---0-0----------2-2-----
B|--5-5-5-5-5-|--3-3---1-1----1-1---0-0-----
G|--5-5-5-5-5-|--4-4---2-2----3-3---2-2-----
D|------------|--5-5---0-0----2-2---1-1-----
A|------------|---------------3-3---2-2-----
E|------------|-----------------------------


VERSO 2


E|------------------------------------------------|
B|------------------------------------------------|
G|---------------------0h1p0h1p0h1p0h1p0h1----0h1-|
D|----0---2---0-2---------------------------------|
A|--2---2---0-------------------------------------|
E|----------------0-0-----------------------------|



E|------0--------------------0-----0--------------
B|--0h1----------3b(4)r3p1-----------3b--3b-------
G|-------------2-----------2---------------------------
D|---------0------------------------------------------
A|---------------------------------------------------
E|---------------------------------------------------



CORO 2



E|--6-6-6-6-6-|--3-3---0-0--------2-2--------------
B|--5-5-5-5-5-|--3-3---1-1---1-1--0-0--------------
G|--5-5-5-5-5-|--4-4---2-2---3-3--2-2--------------
D|------------|--5-5---0-0---2-2--1-1--------------
A|------------|--------------3-3--2-2--------------
E|------------|------------------------------------


      Em7
E|--3-3-3-3-3-3-3-3-3-3-3-|-3-3---0-0--------2-2---
B|--3-3-3-3-3-3-3-3-3-3-3-|-3-3---1-1---1-1--0-0---
G|------------------------|-4-4---2-2---3-3--2-2---
D|--2-2-2-2-2-2-2-2-2-2-2-|-5-5---0-0---2-2--1-1---
A|--x-x-x-x-x-x-x-x-x-x-x-|-------------3-3--2-2---
E|------------------------|------------------------


SOLO



E|----------------------------------------------|
B|----------------------------------------------|
G|----------------------------------------------|
D|----0---2---0-2-----2-2-----2-2---------------|
A|--2---2---0-----------------------------------|
E|----------------0-0-----0-0-------------------|



E|---5-5------------7---------------------------
B|---5-5-----8----8-----------------------------
G|---6-6--6-----6-------------------------------
D|---7-7----------------------------------------
A|----------------------------------------------
E|----------------------------------------------


E|--------------------------2-2-----------------
B|------3--------1----1-1---0-0-----------------
G|--------4--------2--3-3---2-2-----------------
D|----5--------0------2-2---1-1-----------------
A|--------------------3-3---2-2-----------------
E|-3--------------------------------------------



E|--3-3-3-3-3-3-3-3-3-3-3-|-3-3---0-0--------2-2----
B|--3-3-3-3-3-3-3-3-3-3-3-|-3-3---1-1---1-1--0-0----
G|------------------------|-4-4---2-2---3-3--2-2----
D|--2-2-2-2-2-2-2-2-2-2-2-|-5-5---0-0---2-2--1-1----
A|--x-x-x-x-x-x-x-x-x-x-x-|-------------3-3--2-2----
E|------------------------|-------------------------


VERSO 3



E|-----------------------------------------------|
B|-----------------------------------------------|
G|-----------------------------------------------|
D|----0---2---0-2------0h2p0h2p0h2p0h2p0h2---0h2-|
A|--2---2---0------------------------------------|
E|----------------0-0----------------------------|

E|-----5-----------------------------------------
B|---5-5-----r8----------------------------------
G|---6-6--6--------------------------------------
D|---7-7-----------------------------------------
A|-----------------------------------------------
E|-----------------------------------------------


E|---------0-------------0-----0------------------
B|----0h1-------r3p1---1----3b---r3-3-------------
G|--2---------2------2--------------2-------------
D|------------------------------------------------
A|------------------------------------------------
E|------------------------------------------------

CORO 3

E|--6-6-6-6-6-|--3-3---0-0--------2-2-------------
B|--5-5-5-5-5-|--3-3---1-1---1-1--0-0-------------
G|--5-5-5-5-5-|--4-4---2-2---3-3--2-2-------------
D|------------|--5-5---0-0---2-2--1-1-------------
A|------------|--------------3-3--2-2-------------
E|------------|-----------------------------------


VERSO 4



E|----------------------------------------------|
B|----------------------------------------------|
G|----------------------------------------------|
D|----0---2---0-2-----2-2-----2-2---------------|
A|--2---2---0-----------------------------------|
E|----------------0-0-----0-0-------------------|


LICK 1 


E|-----------0---------------------------------------
B|---------3-------0---------------------------------
G|--0--2/4-----2------0------------------------------
D|---------------------------------------------------
A|---------------------------------------------------
E|---------------------------------------------------

LICK 2


E|---------------------0-----------------------------
B|------3-3-3-3-3-3-3--------------------------------
G|--2/4---4-4-4-4-4-4--------------------------------
D|---------------------------------------------------
A|---------------------------------------------------
E|---------------------------------------------------




E|--------0------------------0-------14--------------
B|------1------3b(4)r3p1---1----/13-----13----13-----
G|----2-----2------------2------/14--------14--------
D|--0------------------------------------------------
A|---------------------------------------------------
E|---------------------------------------------------


FINAL

E|-15-15-15-15-15-15---------------------
B|-15-15-15-15-15-15---------------------
G|---------------------------------------
D|-14-14-14-14-14-14---------------------
A|---------------------------------------
E|---------------------------------------