1800 VISITAS

Madrugada

La beriso

            
                               


Intro: B - F# - C#m - E


B                F#
De madruga desperté
                        C#m
Pensando en la noche de ayer
E                       B
Y recorrí parte de mi vida
                        F#
Son muchos sueños que perdí
                      C#m
Y algunos que siguen aquí
E                               F# G#m A# C# B
Pero no hay nada que soñar me impi-daaaaaaa


E|-------------------------------------------|
B|---------------------------11-11/12--------|
G|--6-8-9---11/13-11---/11------------11/13--|
D|-------------------------------------------|
A|-------------------------------------------|
E|-------------------------------------------|


E|-------------------------------------------|
B|--12/14--12----17-16-----------------------|
G|---------------------11/13--11-------------|
D|-------------------------------------------|
A|-------------------------------------------|
E|-------------------------------------------|


B                    F#
Cuantos amores que gane
               C#m
Y cuantos fracase
E                             B
Pero sigo amando porque es mi vida
                   F#
Cuantos amigos conoci
                 C#m
Y cuantos que perdi
E                         F# G#m A# C# B
Pero sigo con los que mas que-riaaaaaaa



coro:

B    F#   C#m      E                         
Otra vez, otra vez de noche puedo sentir tu piel
B    F#   C#m      E             F#            
Otra vez, otra vez me agarras la mano antes de caer


B - F# - C#m - E


B                     F#
Cuantas canciones que cante
              C#m
Y cuantas que llore
                                F#
Pero sigo cantando porque es mi vida
B                    F#
Cuantas noches te perdi
                  C#m
Pero hoy te tengo aqui
E                             F# G#m A# C# B
No voy a dejarte nunca mas mi vidaaa


coro:

B    F#   C#m      E                        
Otra vez, otra vez de noche puedo sentir tu piel
B    F#   C#m      E             F#            
Otra vez, otra vez me agarras la mano antes de caer



E|------14-------------14b(16)-14---12-11h12p11------------|
B|--14b-----r14-12-12---------------------------12-14------|
G|---------------------------------------------------------|
D|---------------------------------------------------------|
A|---------------------------------------------------------|
E|---------------------------------------------------------|

E|-----11-12--12/14-12---11--12p11---------|
B|--14-----------------------------12------|
G|-----------------------------------------|
D|-----------------------------------------|
A|-----------------------------------------|
E|-----------------------------------------|

E|--------------14b(16)r-14--------------|
B|--------12-----------------------------|
G|-11--13--------------------------------|
D|---------------------------------------|
A|---------------------------------------|
E|---------------------------------------|



E|-----16-19p16----16----------------------|
B|-19b----------19----19p16----------------|
G|---------------------------18-18-16------|
D|-----------------------------------------|
A|-----------------------------------------|
E|-----------------------------------------|


final


E|----------------------------------------|
B|-------------11/12-11-----/19-17-16-----|
G|----------13----------11----------------|
D|--11--14--------------------------------|
A|----------------------------------------|
E|----------------------------------------|