4775 VISITAS

Master of puppets (Tutorial)

Metallica

            
                               


INTRO


|--------------------------------|
|--------------------------------|
|----------7---6---5-------------|
|-2--------7---6---5-------------|
|-2--------5---4---3-------------|
|-0------------------------------|



Repetir x4

|--------------------------------------------------------------------|
|--------------------------------------------------------------------|
|--------------------7---6---5---------------------------------------|
|--------------------7---6---5---------------------------------------|
|-----7-----6--------5---4---3---------------------------------------|
|-0-0---0-0---0-0---------------------0-0-7-0-0-6-0-0-5-0-4-0-3-0-2--|



////////////////////////////////////////////////////////////////////////



|--------------------------------------------------------------------|
|--------------------------------------------------------------------|
|--------------------------------------------------------------------|
|--------------------------------------------------------------------|
|-----2-----3-----4-----3-----2-2-----2-----3------5\4---5\4---5\4---|
|-0-2---0-2---0-2---0-2---0-2-----0-2---0-2---0-0--3\2-0-3\2-0-3\2---|


|--------------------------------------------------------------------|
|--------------------------------------------------------------------|
|--------------------------------------------------------------------|
|-------------------------------------------------------------4------|
|-----2-----3-----4-----3-----2-2-----2-----3-----4-----3-----2------|
|-0-2---0-2---0-2---0-2---0-2-----0-2---0-2---0-2---0-2---0-2--------|


|--------------------------------------------|
|--------------------------------------------|
|--------------------------------------------|
|--------------------------------------------|
|---5\4---5\4---5\4-5\4---5\4---5\4----------|
|---3\2-0-3\2-0-3\2-3\2-0-3\2-0-3\2----------|



E|------------------------------------------
B|------------------------------------------
G|-------3------3-------3------3-----3------
D|--2-2-----2-2----2-2----2-2----2-2--------
A|------------------------------------------
E|------------------------------------------



////////////////////////////////////////////////////////////////////////



|---------------------------------------------------------------------|
|---------------------------------------------------------------------|
|---------------------------------------------------------------------|
|---------------------------------------------------------------------|
|-----------------5/7---8\7--5/7------------------5/7--5/7------------|
|-0-0-0-0-0-0-0-0-3/5-0-6\5--3/5--0-0-0-0-0-0-0-0-3/5--3/5------------|



|--------------------------------------------------------------------|
|--------------------------------------------------------------------|
|--------------------------------------------------------------------|
|--------------------------------------------------------------------|
|-------------------7/9---10/9--7/9---------------------7/9--7/9-----|
|-2-2-2-2-2-2-2-2---5/7-0-8-/7--5/7---2-2-2-2-2-2-2-2---5/7--5/7-----|


////////////////////////////////////////////////////////////////////////




|-------------------|
|-------------------|
|-------------------|
|-------------------|
|-9-9-9-9-9-9-9-9---|
|-7-7-7-7-7-7-7-7---|


E|-------------------------------------------
B|-------------------------------------------
G|-------------------------------------------
D|-9-------7--9------9-----------------------
A|-7-------5--7--7-7---7--9/10----------10-9-
E|-0-0-0-0----------------------8-8-8-8-8--7-


E|------------------------------------------
B|------------------------------------------
G|------------------------------------------
D|----------8-------------------------------
A|----------6--9----------------------------
E|-7-7-7-7-----7----------------------------


E|------------------------------------------
B|------------------------------------------
G|------------------------------------------
D|------------------------2-2---------------
A|--12-10-9---9-----------2-2--3-3----------
E|--------------12--11----0-0--1-1----------


//////////////////////////////////////////////////


E|-------------------------------------------
B|-------------------------------------------
G|----------------------------------------2--
D|-2----------------------5-------4-------2--
A|-2--------4-------5-----3-0-0-0-2-0-0-0-0--
E|-0--0-0-0-2-0-0-0-3------------------------


E|-------------------------------------------
B|-------------------------------------------
G|-------------------------------------------
D|--7-------5-------4-----9-------7-------5--
A|--5-0-0-0-3-0-0-0-2-----7-0-0-0-5-0-0-0-3--
E|-------------------------------------------


E|----------------------------------------------------
B|----------------------------------------------------
G|----------------------------------------------------
D|--2-2----------2-------------------5-------2-2------
A|--2-2--3-3-----2----------4--------3-------2-2--3-3-
E|--0-0--1-1-----0---0-0-0--2--0-0-0---------0-0--1-1-

////////////////////////////////////////////////



E|----------------------0h2p0-----3---------------------
B|------------------3---------3-----------3---3------0--
G|--------0-------2---2---------2-------0---0---0-------
D|------2-------0---------------------------------------
A|----2-------------------------------3-----------3-----
E|--0---------------------------------------------------

E|------------------------------------------
B|------0--------0--------0-----------------
G|----2--------2--------2-------------------
D|--------------------1---------------------
A|--0------0-2------2-----------------------
E|----------------------------3b------------

///////////////////////////////////////////////////////


1er guitarra

|----19-15----17-14-------------17-14----15-12-------------|
|-17-------17-------15-15-15-15-------15-------13-13-13-13-|
|----------------------------------------------------------|
|----------------------------------------------------------|
|----------------------------------------------------------|
|----------------------------------------------------------|

|-15-12----14-12h14p12-11----------------------14-15-------|
|-------13----------------13-12-13-15-13-16-17-------------|
|----------------------------------------------------------|
|----------------------------------------------------------|
|----------------------------------------------------------|
|----------------------------------------------------------|

2da guitarra

E|----22--19----20--17-------------20-17----19--15-------------|
B|-20--------20--------19-19-19-19-------19--------17-17-17-17-|
G|-------------------------------------------------------------|
D|-------------------------------------------------------------|
A|-------------------------------------------------------------|
E|-------------------------------------------------------------|

E|--19--15------17---15h17p15/14-----------------------17-19---
B|----------17--------------------17-16-17-19-17-19-20---------
G|-------------------------------------------------------------
D|-------------------------------------------------------------
A|-------------------------------------------------------------
E|-------------------------------------------------------------

///////////////////////////////////////////////////////////////////
1er solo

E|-------14h15-15---14-15-17-15-14----19p15----12h15p12-------
B|--17---------------------------------------------------13---
G|------------------------------------------------------------
D|------------------------------------------------------------
A|------------------------------------------------------------
E|------------------------------------------------------------


E|----------------------15-14-----15-14-------------
B|---15b(17)r-15b(17)r--------12---------12h15-12---
G|--------------------------------------------------
D|--------------------------------------------------
A|--------------------------------------------------
E|--------------------------------------------------


E|--------------------------------------------------------
B|--------15----------------------------------------------
G|-12-14--14b(16)r14p12-----12-----------12--14-12-11-----
D|-----------------------14----14-----12--------------12--
A|--------------------------------------------------------
E|--------------------------------------------------------


E|----------------------------------------------------------
B|----------------------------------------------------------
G|--14-12-11h12p11--------------------------------9--11-12--
D|------------------10-----9-10---9-10-12---10-12-----------
A|----------------------12----------------------------------
E|----------------------------------------------------------


E|----------15-14---11h12p11-----------/19--------
B|---12-----------------------12--10--------------
G|-------12---------------------------------------
D|------------------------------------------------
A|------------------------------------------------
E|------------------------------------------------



///////////////////////////////////////////////////////////////////

E|------------------------------------------
B|------------------------------------------
G|------------------------------------------ X2
D|--2----7-----5------2---4---8-------------
A|--2----5-----3------0---2---6-------------
E|--0---------------------------------------


|--------------------------------------------------------------------|
|--------------------------------------------------------------------|
|--------------------------------------------------------------------|
|--------------------------------------------------------------------|
|-2--2--2--2--2--2--2--2--2--2--2--2--2--2--2--2---------------------|
|-0--0--0--0--0--0--0--0--0--0--0--0--0--0--0--0---------------------|

|---------------------------------------------------------------------|
|---------------------------------------------------------------------|
|---------------------------------------------------------------------|
|---------------------------------6---------------------------------6-|
|-4-4-5-4-4-4-5-4-4-4-4-5-4-4-4-5-4-4-4-5-4-4-4-5-4-4-4-4-5-4-4-4-5-4-|
|-2-2-3-2-2-2-3-----2-2-3-2-2-2-3---2-2-3-2-2-2-3-----2-2-3-2-2-2-3---|

|--------------------------------------------------------------------|
|--------------------------------------------------------------------|
|--------------------------------------------------------------------|
|--------------------------------------------------------------------|
|-5--------4--------2------------------------------------------------|
|-3--------2--------0------------------------------------------------|


//////////////////////////////////////////////////////////////////////


SOLO


|-17p12----------12-17p12----------12-17p12----------12-15p12----------12-|
|-------13-12-13----------13-12-13----------13-12-13----------13-12-13----|
|-------------------------------------------------------------------------|
|-------------------------------------------------------------------------|
|-------------------------------------------------------------------------|
|-------------------------------------------------------------------------|

|-17p12----------12-17p12----------12-17p12----------12-15p12----------12-|
|-------13-12-13----------13-12-13----------13-12-13----------13-12-13----|
|-------------------------------------------------------------------------|
|-------------------------------------------------------------------------|
|-------------------------------------------------------------------------|
|-------------------------------------------------------------------------|

|-19-19-19-17-17-17-15-15-15-14-14-14-17-17-17-15-15-15-14-14-14-----------|
|----------------------------------------------------------------17-15-17b-|
|--------------------------------------------------------------------------|
|--------------------------------------------------------------------------|
|--------------------------------------------------------------------------|
|--------------------------------------------------------------------------|


E|-19-17-15/14---17-15-14-------------------
B|-------------------------17-15-14---------
G|-----------------------------------16b----
D|------------------------------------------
A|------------------------------------------
E|------------------------------------------



E|------------------------------------------
B|------------------------------------------
G|---4b-(o harm)--4-2--------2--------------
D|---------------------4-2-----4-2---2-4----
A|---------------------------------4--------
E|------------------------------------------


E|---10-8-7-----7-8---------------7---------
B|----------10-------10-8-7-8-10------------
G|------------------------------------------
D|------------------------------------------
A|------------------------------------------
E|------------------------------------------



E|--10-8-7-7-|--12-10-8-8-|--14-12-10-10-|-15p12-|
B|-----------|------------|--------------|-------|
G|-----------|------------|--------------|-------|
D|-----------|------------|--------------|-------|
A|-----------|------------|--------------|-------|
E|-----------|------------|--------------|-------|


E|--17-16-14-14-|--19-17-14-14-|
B|--------------|--------------|
G|--------------|--------------|
D|--------------|--------------|X4
A|--------------|--------------|
E|--------------|--------------|


E|-----14-----14-----14------14----19p14-----19p14---------
B|-17b----17b----17b-----17b-------------17----------------
G|---------------------------------------------------------
D|---------------------------------------------------------
A|---------------------------------------------------------
E|---------------------------------------------------------


E|-----14-----14-----14------14------14-|----15---15---15---15---
B|-17b----17b----17b-----17b-----17b----|-18b--18b--18b--18b-----
G|--------------------------------------|------------------------
D|--------------------------------------|------------------------
A|--------------------------------------|------------------------
E|--------------------------------------|------------------------


E|------17----17-|-----18----18--|-----19-----19---22b-------
B|--20b---20b----|-21b----21b----|-22b----22b----------------
G|---------------|---------------|---------------------------
D|---------------|---------------|---------------------------
A|---------------|---------------|---------------------------
E|---------------|---------------|---------------------------

//////////////////////////////////////////////////////////////////////


E|------------------------------------------
B|------------------------------------------
G|------------------------------------------
D|-------------------------------------4-4--
A|------3-2-----3-2-----3-2-----3-2----2-2--
E|--0-0-1-0--0--1-0--0--1-0--0--1-0--0------


E|------------------------------------------
B|------------------------------------------
G|------------------------------------------
D|-------------------------------------4-----
A|------3-2-----3-2-----3-2-----3-2----2---------------
E|--0-0-1-0--0--1-0--0--1-0--0--1-0--0-----------------------------



|-----------------------------------------------------------|
|-----------------------------------------------------------|
|-----------------------------------------------------------|
|-------------------------------2-4-5-----------------------|
|-------------------------2-3-5-------3--333-2-3-5-3-2------|
|-0-0-0-0-0-0-0-000-2-3-5------------------------------3-2--|

|-------------------------------------------------------------------------|
|-------------------------------------------------------------------------|
|-------------------------------------------------------------------------|
|-------------------------------2-4-5------------------------------------|
|-------------------------2-3-5-------3--333-2-3-5-3-2--------------------|
|-0-0-0-0-0-0-0-000-2-3-5------------------------------3-2----------------|

|-------------------------------------------------------------------------|
|-------------------------------------------------------------------------|
|-------------------------------------------------------------------------|
|-------------------------------2-4-5------------------------------------|
|-------------------------2-3-5-------3--333-2-3-5-3-2--------------------|
|-0-0-0-0-0-0-0-000-2-3-5------------------------------3-2----------------|


|------------------------------------------------------------------------------|
|------------------------------------------------------------------------------|
|------------------------------------------------------------------------------|
|-------------------------------2-4-5-----------------------------------------|
|-------------------------2-3-5-------3------|
|-0-0-0-0-0-0-0-000-2-3-5------------------------------|


|----------------------------------------|
|----------------------------------------|
|----------------------------------------|
|----------------------------------------|
|--333-2-3-5-3-2-----2--333-2-3-5-3-2----|
|----------------3-2-0----------------3-2|

/////////////////////////////////////////////////////////////////

parte final


|---------------------------------------------------------------------|
|---------------------------------------------------------------------|
|---------------------------------------------------------------------|
|---------------------------------------------------------------------|
|-----------------5/7---8\7--5/7------------------5/7--5/7------------|
|-0-0-0-0-0-0-0-0-3/5-0-6\5--3/5--0-0-0-0-0-0-0-0-3/5--3/5------------|


E|------------------------------------------
B|------------------------------------------
G|------------------------------------------
D|-----------------------2------------------
A|--5\4---5\4---5\4------2------------------
E|--3\2-0-3\2-0-3\2------0------------------