2524 VISITAS

Nada Personal

Soda stereo

            
                               


INTRO

e|--------------------------------|
B|--------------------------------|
G|--------------------------------|
D|--------------------------------|
A|---4-4-----6-6-----2-2----------|
E|-------4-4-----4-4------4-4-2---|





Comunicación sin emoción

e|---------------0----------------------0--------------|
B|-------------0----------0----------0------------0----|
G|-----------1----------1----2-----2-----------2-------|
D|--------2---------2-----------4-----------4----------|
A|-----------------------------------------------------|
E|--0--------------------------------------------------|


e|---------------0--------------------------------0-----|
B|-------------0----------------0--------------0--------|
G|-----------1--------------1------2---------2----------|
D|-1------2-------------2-----------------4-------------|
A|------------------------------------------------------|
E|------------------------------------------------------|


una voz en off con expresión deforme

e|---------------0----------------------0--------------|
B|-------------0----------0----------0------------0----|
G|-----------1----------1----2-----2-----------2-------|
D|--------2---------2-----------4-----------4----------|
A|-----------------------------------------------------|
E|--0--------------------------------------------------|


e|---------------0-----3/-------------------------------|
B|-------------0-------3/-----------------|
G|-----------1-----------------------|
D|-1------2-------------------------|
A|------------------------------------------------------|
E|------------------------------------------------------|




busco algo que me saque este mareo

E|--------------------11-x-11----------------------9-x-9-x-x---
B|--9-x-x-11-x-x-9-x--11-x-11--9-x-9-9--11-x-x-9-x-9-x-9-x-x---
G|--9-x-x-11-x-x-9-x-----------9-x-9-9--11-x-x-9-x-------------
D|--9-x-x----x-x-9-x-----------9-x-9-9-----x-x-9---------------
A|-------------------------------------------------------------
E|-------------------------------------------------------------


E|-------------------11-x-11----------------------9-x-9-x-x----
B|--9-x-x-11-x-x-9-x-11-x-11--9-x-9-9--11-x-x-9-x-9-x-9-x-x----
G|--8-x-x-10-x-x-8-x----------8-x-8-8--10-x-x-8-x--------------
D|--9-x-x-11-x-x-9-x----------9-x-9-9--11-x-x-9----------------
A|-------------------------------------------------------------
E|-------------------------------------------------------------


busco calor en esa imagen de video

E|--------------------11-x-11----------------------9-x-9-x-x---
B|--9-x-x-11-x-x-9-x--11-x-11--9-x-9-9--11-x-x-9-x-9-x-9-x-x---
G|--9-x-x-11-x-x-9-x-----------9-x-9-9--11-x-x-9-x-------------
D|--9-x-x----x-x-9-x-----------9-x-9-9-----x-x-9---------------
A|-------------------------------------------------------------
E|-------------------------------------------------------------

E|-------------------11-x-11----------------------9-x-9-x-x----
B|--9-x-x-11-x-x-9-x-11-x-11--9-x-9-9--11-x-x-9-x-9-x-9-x-x----
G|--8-x-x-10-x-x-8-x----------8-x-8-8--10-x-x-8-x--------------
D|--9-x-x-11-x-x-9-x----------9-x-9-9--11-x-x-9----------------
A|-------------------------------------------------------------
E|-------------------------------------------------------------


F#     E
Nada, nada personal
D#m    E
nada, nada personal

Ella no puede pensar, esta aburrida
de tanto simular cayó dormida
busco en TV algún mensaje entre líneas
busco alguien que sacuda mi cabeza
y no encuentro nada

Nada personal
nada, nada personal
nada especial 
 
e|-------------12------|
B|-------------12------|
G|-------------11------|
D|-------------11------|
A|---------------------|
E|---------------------|


E|---------------|-----------|-----------|--------|
B|-------16--14--|--9--11-14-|--9--11-14-|--16-14-|
G|--13-----------|-----------|-----------|--------|
D|-------13--11--|--6--8--11-|--6--8--11-|--13-11-|
A|--11-----------|-----------|-----------|--------|
E|---------------|-----------|-----------|--------|

E|-------------|------------|-----------------
B|---9--11-14--|--9--11-14--|--7--11--9-------
G|-------------|------------|-----------------
D|---6--8--11--|--6--8--11--|--4--8---6-------
A|-------------|------------|-----------------
E|-------------|------------|-----------------



Sinceramente
sería tan bueno tocarte
pero es inútil, tu cuerpo es de látex
y no siento nada

Nada personal
nada, nada personal
Nada, nada personal
nada, nada personal



E|--------------------------------------------------------
B|------------------------------------------11------------
G|----------------------------------11--13------13--------
D|-----11---13--11------11--13--11------------------13----
A|-11---------------11------------------------------------
E|--------------------------------------------------------


E|----------------------------------------------
B|----11----------------------------------------
G|-13----13-------------------------------------
D|----------------11---13--11-----11--13--11----
A|------------11--------------11----------------
E|----------------------------------------------