2412 VISITAS

Panama

Van Halen

            
                               


Intro:

E - Esus4 - E7M(no3)
D - Dsus4 - D7M(no3)

-------------------------------------------------------------------


E|------------------------------------------
B|--5-5-5-------------4-5p4----4/2--2-2-----
G|--6-6-6-------------4--------4/2--2-2-----
D|--6-6-6-------------4-----4--4/2--2-2-----
A|--4-4-4---4-4-4-4-4--------------------2--
E|------------------------------------------

E|------------------------------------------
B|--4-4-4---4-----4h6---4-5p4----4/2--2-2---
G|--6-6-6-----6---------4--------4/2--2-2---
D|--6-6-6-------6-------4-----4--4/2--2-2---
A|--4-4-4-----------------------------------
E|------------------------------------------

E|-------------------0-----0-----0-----0---------5(3rd)-5(3rd)----
B|--2-2-2-2-2-2--2-----4-----4-----4----4(4th)---5(3rd)-5(3rd)----
G|--2-2-2-2-2-2--4-------4-----4-----4---- 4(4th)-----------------
D|--2-2-2-2-2-2--4------------------------------------------------
A|---------------2------------------------------------------------
E|----------------------------------------------------------------

////////////////////////////////////////////////////////////

E|-------------------------------------------
B|----------3-----2---3----------------------
G|------2---2-----2---2-2--------------------
D|------2---0-0-0-2---0-2-----5/7/5----2-----
A|------0-0-------0-0---0-----5/7/5----2-----
E|-0-0--------------------0------------------

///////////////////////////////////////////////////////////

E|------------------0-----0-------------------
B|------------------0--2--3-------------------
G|---------------------2--2-------------------
D|--0--2----------------------------0-0-2-2---
A|--0--2----------------------------0-0-2-2---
E|------------0-0-------------0-0-0-----------

E|---0-----0--------------0-----------------------0--0------0-
B|---0--2--3---------------------0------0---------0----0----0-
G|------2--2-------4-4-4----4------3------3-------6------6--6-
D|-----------------4-4-4------4------4--------4/6-6-------6-6-
A|-------------/----------------------------4-----4-----------
E|-------------/---2-2-2--------------------------------------

E|------------------------------------------
B|------------------------------------------
G|----------------------------------4-------
D|----------------------------------4-------
A|--/----5-----------3--------------2-------
E|--/------6-5---------4-3----2--0----------

E|-----0-----0-----0-----0---------5(3rd)-5(3rd)---
B|-------4-----4-----4----4(4th)---5(3rd)-5(3rd)--------
G|---------4-----4-----4---- 4(4th)-----------------
D|---------------------------------------------------
A|-----------------------------------------------
E|------------------------------------------

///////////////////////////////////////////////////////////

E|------------------------------------------
B|----------3-----2---3-----------------------
G|------2---2-----2---2-2-----------------------
D|------2---0-0-0-2---0-2-----5/7/5----2---------------
A|------0-0-------0-0---0-----5/7/5----2--------------
E|-0-0--------------------0-------------------------


///////////////////////////////////////////////////////

E|--3--3------3-----------------------------
B|--3--3--2---3-----------------------------
G|--0--0--2---0-----------------------------
D|--------2---------------------------------
A|--3--2---0--3p0---------------------------
E|------------------------------------------


SOLO

E|-----7-7----7-7-----7-7-----------------------
B|-----7-7----7-7-----7-7-----------------------
G|--9b------9b-----9b------9b(11)r9p7--9b(11)---
D|----------------------------------------------
A|----------------------------------------------
E|----------------------------------------------

E|-------------------7----------------7-----------
B|---7h10p7---7h10p7---10p7----7h10p7---10p7---7--
G|----------9---------------9----------------9----
D|------------------------------------------------
A|------------------------------------------------
E|------------------------------------------------


E|---------------------------------------------------
B|-------------7-------------------------------------
G|--10p9p7h9-----7b----9b(11)--(14)(12)(14)(16)(14)--
D|---------------------------------------------------
A|---------------------------------------------------
E|---------------------------------------------------

E|------------------------------------------------
B|------------------------------------------------
G|--r9p7h9-9b(11)r9p7----b7(9)-7-----7b-----------
D|-------------------------------9------9---------
A|--------------------------------9-------9-8-7/5-
E|------------------------------------------------


E|------------------------|-------------------------|
B|------------------------|-------------------------|
G|------------------------|-------------------------|
D|------------------------|----------------------9--|
A|--/9-10p9-----7b(9)r9/2-|---/9-10p9----9----9--9--|
E|----------10------------|-----------10---10----7--|

E|------------------------|---------------------0-----|
B|------------------------|-----------------------0---|
G|------------------------|-------------------2-----2-|
D|----------------------9-|------------------0--------|
A|--/9-10p9----9----7---7-|--/9-10p9------------------|
E|----------10---10-------|-----------10---1----------|

E|------------------------------------------------------------------
B|------------------------------------------------------------------
G|----------------9-----9-----7-------------------------------------
D|----------------9-----9-----7-------------------------------------
A|--/9-10p9-----7---7-7---7-7---7-7-7---/9-10p9-----9-10------9-10--
E|----------10----------------------------------10--8-8---8-8-8-8---

E|-----------------------|----------------------------------
B|-----------------------|----------------------------------
G|-----------------------|----------------------------------
D|-----------------------|----------------------------------
A|--/9-10p9-----9/7-9p7--|--/9-10p9-----9-10------9-10------
E|-----------10----------|----------10--8-8---8-8-8-8-------

E|------------------------------------------
B|------------------------------------------
G|----------------9-----9-----9-------------
D|----------------9-----9-----9-------------
A|-/9-10p9----------7-7---7-7---7-7-7-------
E|----------10------------------------------



E|------------------------------------------
B|------------------------------------------
G|------------------------------------------
D|------------------------------------------
A|--/9-10p9-----9-10------9-10-10-10-10-----
E|----------10--8-8---8-8-8-8--8--8--8------


E|------------------------------------------------------------
B|------------------------------3-------------2---------------
G|------------------------------2-------------0---------------
D|--2-------------3-------------0-------------0---------------
A|--2-------------3-------------------------------------------
E|--0-0-0-0-0-0-0-1-1-1-1-1-1-1-2-2-2-2-2-2-2-3-3-3-3-3-3-3---

E|--------------------------------------------------------------
B|--5-5-----------2-2-------------0-0-------------4-4-4-4-4-4-4-
G|--4-4-----------2-2-----------------------------4-4-4-4-4-4-4-
D|--2-2-----------2-2-----------------------------4-4-4-4-4-4-4-
A|----------------0-0-0-0-0-0-0-0-1-1-1-1-1-1-1-1-2-2-2-2-2-2-2-
E|--4-4-4-4-4-4-4-----------------------------------------------