1909 VISITAS

Personalmente

Las pelotas

            
                               

Versos
E / F# 

Estribillo
C#m / F#


INTRO

E|----------------------------------------------
B|----------------------------------------7-----
G|---4----6b(8)-6--------4----4------6/8-----6--
D|-------------------4h6------------------------
A|----------------------------------------------
E|----------------------------------------------

E|-----------------------------------------------
B|-----------------------------------------------
G|--4--4-6b(7)r6--4-------6b(8)-6--------4----4--
D|---------------------------------4h6------6----
A|-----------------------------------------------
E|-----------------------------------------------


E|-----------------------------------------------
B|--------7-------------7-7-7---7---9------------
G|---6/8-----6------6/8-------8------------------
D|-----------------------------------------------
A|-----------------------------------------------
E|-----------------------------------------------


Intermedio

E|-------------------------------------------------
B|--7----------------------------------------7-----
G|--6b-----6b(8)-6---------4----4-----6b(8)-----6--
D|--------------------4h6--------------------------
A|-------------------------------------------------
E|-------------------------------------------------


E|-----------------------------------------------
B|-----------------------------------------------
G|--4---4------4---------------------------------
D|---------6-4-----------------------------------
A|-----------------------------------------------
E|-----------------------------------------------



Solo


E|--------11--12--11------------------------------
B|-----12-------------12-11-----------------------
G|--13----------------------13--------------------
D|------------------------------13--13--11--11----
A|------------------------------------------------
E|------------------------------------------------



E|------------------------------------------14--14--14----14--16--
B|-11h12p11-----11--11/12---14--14----14h16------------16---------
G|-----------13---------------------------------------------------
D|----------------------------------------------------------------
A|----------------------------------------------------------------
E|----------------------------------------------------------------