139 VISITAS

Que ves ?

Divididos

            
                               


Intro: (Am - G - D - F) x4

   Am                       G           D   F
    El wawa de Troilo no quiere arrancar
   Am                       G           D   F
    Falta envido y truco, chiste nacional.
   Am                       G           D   F
    'Estamos en vena' grita el mayoral,
   Am                       G           D   F
    y pagás el vale un dia despues.



CORO

   Am        G
    Que ves?
   Am            G
    Que ves cuando me ves?
   Am                     G       D   F
    Cuando la mentira es la verdad.

   Am        G
    Que ves?
   Am            G
    Que ves cuando me ves?
   Am                     G       D   F
    Cuando la mentira es la verdad.

VERSO

La prensa de dios lleva poster central,
el bien y el mal definen por penal.
Fía la chapita porr¢n en Palomar
cruzando la víaa pa' poderla pasar.


   Am        G
    Que ves?
   Am            G
    Que ves cuando me ves?
   Am                     G       D   F
    Cuando la mentira es la verdad.

   Am        G
    Que ves?
   Am            G
    Que ves cuando me ves?
   Am                     G       D   F
    Cuando la mentira es la verdad.


SOLO



E|---------------------------------------------------|
B|--0------------------------------------------------|
G|--4--/4--5----/4-5-7----7/5/9---9/5--5/7/5/4v/2----|
D|--4------------------------------------------------|
A|---------------------------------------------------|
E|---------------------------------------------------|

E|---------------------------------------------|
B|---------------------------------------------|
G|-2-4-4/5---5p4-5-5/12-----5/7/4--4/5/2-------|
D|---------------------------------------------|
A|---------------------------------------------|
E|---------------------------------------------|


    Fía la chapita...

    Que ves?...

    Que ves?
    Que ves cuando me ves?
    Mentira es la última verdad.


Final:  Am  G  Am