1584 VISITAS

Ride the lightening

Metallica

            
                               

INTRO

  GUITARRA 1

E|--------------------------------------------
B|---12-13----12------------------------------
G|---------14-------11--12--------------------
D|---------------14--------14-----------------
A|--------------------------------------------
E|--------------------------------------------

  GUITARRA 2

E|--------------------------------------------
B|--------------------------------------------
G|--11-12-------------------------------------
D|--------12-14-------------------------------
A|--------------12-14-------------------------
E|---------------------10-12------------------


E|-------
B|-------
G|-------
D|-------
A|--7/---
E|--7/---


  x12
E|-----------------------------------------
B|-----------------------------------------
G|-----------------------------------------
D|-----------------------------------------
A|--7/8--------7/8-------------------------
E|--5/6--0--0--5/6--0--0--0--0-------------


  x4
E|---------------------|-------------------
B|---------------------|-------------------
G|---------------------|-------------------
D|-----------2-----5---|-------------------
A|--4--2--4--0--4--3---|--4-----10--9------
E|--2--0--2-----2------|--2------8--7------


//////////////////////////////////////////////////////////////

VERSO 1


  X3					|
E|---------------------------------	|
B|---------------------------------	|
G|---------------------------------	|
D|---------------------------------	|
A|--7/8--------7/8-----------------	| Repetir
E|--5/6--0--0--5/6--0--0--0--0-----	| 2 vueltas
					|
					|
E|---------------------------------	|
B|---------------------------------	|
G|---------------------------------	|
D|---------------------------------	|
A|--7/8--------7/8-------10--9-----	|
E|--5/6--0--0--5/6--0--0--8--7-----	|
					|

//////////////////////////////////////////////////////////////

PRECORO

  x4
E|--------------------------------------
B|--------------------------------------
G|--------------------------------------
D|--------------------------------------
A|-2h4------2h4-------------------------
E|-2---2-2--2----2--2--2--2-------------

//////////////////////////////////////////////////////////////

CORO

E|------------------------------------------
B|------------------------------------------
G|------------------------------------------
D|--6-----5--4-----6---2-2-2-2-2-2-2-2------
A|--4--X--3--2--X--4---0-0-0-0-0-0-0-0------
E|------------------------------------------

E|------------------------------------------
B|------------------------------------------
G|------------------------------------------
D|--6-----5--4-----6---2-2-2-2-2-2--4--4----
A|--4--X--3--2--X--4---0-0-0-0-0-0--2--2----
E|------------------------------------------

  x2
E|------------------------------------------
B|------------------------------------------
G|------------------------------------------
D|------------------------------------------
A|-2h4------2h4-----------------------------
E|-2---2-2--2----2--2--2--2-----------------


E|------------------------------------------
B|------------------------------------------
G|------------------------------------------
D|--6-----5--4-----6---2-2-2-2-2-2-2-2------
A|--4--X--3--2--X--4---0-0-0-0-0-0-0-0------
E|------------------------------------------

E|------------------------------------------
B|------------------------------------------
G|------------------------------------------
D|--6-----5--4-----6---2-2-2-2-2-2-2-2------
A|--4--X--3--2--X--4---0-0-0-0-0-0-0-0------
E|------------------------------------------


//////////////////////////////////////////////////////////////

PUENTE

  x4
E|----------------------------------
B|----------------------------------
G|----------------------------------
D|-----------2-----5----------------
A|--4--2--4--0--4--3----------------
E|--2--0--2-----2-------------------

//////////////////////////////////////////////////////////////

VERSO 2 (IGUAL AL ANTERIOR)

//////////////////////////////////////////////////////////////

PRECORO (IGUAL AL ANTERIOR)

//////////////////////////////////////////////////////////////

CORO (IGUAL AL ANTERIOR)

//////////////////////////////////////////////////////////////

PRE-SOLO (O PUENTE 2)

  X4
E|-------------------------
B|-------------------------
G|-------------------------
D|--9--8--7----6-----5-----
A|--7--6--5----4-----3-----
E|-----------6----5-----4--


E|------------------------------------
B|------------------------------------
G|------------------------------------
D|-----------5-------------5----------
A|-----------5-------------5----------
E|---0-0-0-0---0-0-0-0-0-0----0-0-----



E|-------------------------------------
B|-------------------------------------
G|-------------------------------------
D|----------10--------------10---------
A|----------10--------------10---------
E|--8-8-8-8--8--8-8-8-8-8-8--8--8-8----


E|-------------------------------------
B|-------------------------------------
G|-------------------------------------
D|-----------9---------------9---------
A|-----------9---------------9---------
E|--7-7-7-7--7--7-7-7-7-7-7--7--7-7----


E|-------------------------------------
B|-------------------------------------
G|-------------------------------------
D|-----------8---------------8---------
A|-----------8---------------8---------
E|--6-6-6-6--6--6-6-6-6-6-6--6--6-6----


E|-------------------------------------
B|-------------------------------------
G|-------------------------------------
D|-----------7---------------7---------
A|-----------7---------------7---------
E|--5-5-5-5--5--5-5-5-5-5-5--5--5-5----


E|-------------------------------------
B|-------------------------------------
G|-------------------------------------
D|-----------3---------------3---------
A|-----------3---------------3---------
E|--1-1-1-1--1--1-1-1-1-1-1--1--1-1----

E|-------------------------------------
B|-------------------------------------
G|-------------------------------------
D|-----------5---------------8---------
A|-----------5---------------8---------
E|--3-3-3-3--3--3-3-6-6-6-6--6--6-6----


  X3
E|-------------------------
B|-------------------------
G|-------------------------
D|--9--8--7----6-----5-----
A|--7--6--5----4-----3-----
E|-----------6----5-----4--


E|------------------------------------
B|------------------------------------
G|------------------------------------
D|-----------5-------------5----------
A|-----------5-------------5----------
E|---0-0-0-0---0-0-0-0-0-0----0-0-----



E|------------------------------------
B|------------------------------------
G|------------------------------------
D|--9--8--7------5-------4------------
A|--7--6--5------3-------2------------
E|-----------6------------------------


  x2
E|------------------------------------
B|------------------------------------
G|------------------------------------
D|------------5-----------------------
A|--2---------3---------5---7--7------
E|--0---0--2-----0--2---3---5--5------



//////////////////////////////////////////////////////////////

SOLO


E|--------------------------------------------------------
B|--------------------------------------------------------
G|--------------------------------------------------------
D|--------------------------------------------------------
A|--------------------------------------------
E|--------------------------------------------------


  x3
E|----------------------------------------------------------
B|----------------------------------------------------------
G|--12p5h9-12p5h9-12p5h9-12p5h9-12p5h9-12p5h9-12p5h9-12p5h9-
D|----------------------------------------------------------
A|----------------------------------------------------------
E|----------------------------------------------------------


E|-------------------------------------
B|-------------------------------10----
G|--12p5h9-12p5h9-12p5h9-12p5h9--------
D|-------------------------------------
A|-------------------------------------
E|-------------------------------------


E|----------------------------------------------------
B|--10b--10b---10-8--7---7-8-7h8p7--------------------
G|---------------------------------9--7---7-7-9-------
D|--------------------------------------9-------------
A|----------------------------------------------------
E|------------------------------------------------7/--


E|--------------------------------------------------------
B|--------------------------------------------------------
G|--8-9/11--11-11--11/12--12--12--12/14--14--14--14/12----
D|--------------------------------------------------------
A|--6-7/9----9--9---9/10--10--10--10/12--12--12--12/10----
E|--------------------------------------------------------




E|----------------------------------------------------
B|----------------------------------------------------
G|-12/14--14/16--16/14--14/16--16/17------------------
D|----------------------------------------------------
A|-10/12--12/14--14/12--12/14--14/15-15h17-17/19--19--
E|----------------------------------------------------


E|--------------------------------------------------------
B|--------------------------------------------------------
G|--------------19-21b(23)rp19--21p19----19------19h21----
D|--17--19--21------------------------21------21----------
A|--------------------------------------------------------
E|--------------------------------------------------------


E|-----19------------19-------22b--22p19--22p19------19-----
B|---------22p19-22b----22b19---------------------22----22b-
G|-21b------------------------------------------------------
D|----------------------------------------------------------
A|----------------------------------------------------------
E|----------------------------------------------------------



E|--17p14----14---17p14---------------------17p14-----------
B|--------14------------17p14----14--17p14---------17p14----
G|----------------------------16----------------------------
D|----------------------------------------------------------
A|----------------------------------------------------------
E|----------------------------------------------------------

E|--------------------------------------------------------
B|-----14-17p14-------------------------------------------
G|--16-----------16p14----14--16p14-----------------------
D|---------------------16-----------16p14---14-16p14------
A|----------------------------------------16--------------
E|--------------------------------------------------------

E|--------------------------------------------------------
B|--------------------------------------------------------
G|------------------------------------------14-16---------
D|------------------------------------14-16---------------
A|-16-14-14--12--14p12------12--14/16---------------------
E|----------------------14--------------------------------


E|--------------------------------------------------------
B|--------------------------------------------------------
G|-16p14-----14--16--14--16p14----------------------------
D|--------16----------------------------------------------
A|--------------------------------------------------------
E|--------------------------------------------------------


E|-------------------------17b-17-17b-17-17b---17-14--
B|--17b-17b-17b(19)r17-15-----------------------------
G|----------------------------------------------------
D|----------------------------------------------------
A|----------------------------------------------------
E|----------------------------------------------------

E|--17--14-14-14--17p14--------------------------------
B|-----------------------17p14----14--17p14------------
G|-----------------------------16----------16p14----14-
D|-----------------------------------------------16----
A|-----------------------------------------------------
E|-----------------------------------------------------



E|---------------------14--------------
B|----------------17-------------------
G|--16b--14b---------------------------
D|-----------16------------------------
A|-------------------------------------
E|-------------------------------------

  x4
E|--17p14-----14--17p4-19p14-----------
B|--------17---------------------------
G|-------------------------------------
D|-------------------------------------
A|-------------------------------------
E|-------------------------------------


E|-17p14----14----------------------------------------------
B|-------17----17-14-17p14----14----------------------------
G|-------------------------16----16-14-16p14----14-16-------
D|-------------------------------------------16-------14----
A|----------------------------------------------------------
E|----------------------------------------------------------



E|-----------------------------------------14-15p14-----------------
B|--------------14-15-14h15p14----14-15-17----------17-15-14-15-17--
G|--------14-16----------------16-----------------------------------
D|-14-16------------------------------------------------------------
A|------------------------------------------------------------------
E|------------------------------------------------------------------


E|--14-15-17---15-17-19---17-19-20--19-20-22--22b--22b--22b-
B|----------------------------------------------------------
G|----------------------------------------------------------
D|----------------------------------------------------------
A|----------------------------------------------------------
E|----------------------------------------------------------


E|-17-19-20---20-19-17-15--19-17-15-14--17-15-14-12--15--12-14--
B|--------------------------------------------------------------
G|--------------------------------------------------------------
D|--------------------------------------------------------------
A|--------------------------------------------------------------
E|--------------------------------------------------------------


E|-17-15-14-12---15-14-12-10--14-12-10-8---12-10-8--------
B|--------------------------------------------------------
G|-------------------------------------------------10v----
D|--------------------------------------------------------
A|--------------------------------------------------8v----
E|--------------------------------------------------------


E|-12--12-12--12-12--12-12--12-12--12-12--12-12--12-12--12---
B|-15b----15b----15b----15b----15b----15b----15b----15b------
G|-----------------------------------------------------------
D|-----------------------------------------------------------
A|-----------------------------------------------------------
E|-----------------------------------------------------------


E|-15p12--14p12----12----------------------------------------
B|--------------15----15p14p12-14p12-------------------------
G|-----------------------------------14p12----12--14p12------
D|-----------------------------------------14----------------
A|-----------------------------------------------------------
E|-----------------------------------------------------------

E|-----------------12---16-14-12-----------16-14-12-----------
B|--14b--14b--14b-----------------16-14-12----------16-14-12--
G|--14b--14b--14b---------------------------------------------
D|------------------------------------------------------------
A|------------------------------------------------------------
E|------------------------------------------------------------

E|-17-16-14----------17-16-14--------------------------------
B|----------17-16-14----------17-16-14-----------------------
G|-----------------------------------------------------------
D|-----------------------------------------------------------
A|-----------------------------------------------------------
E|-----------------------------------------------------------


E|--19-17-16-----------21-19-17------------------------
B|------------19-17-16----------21-19-17---------------
G|-----------------------------------------------------
D|-----------------------------------------------------
A|-----------------------------------------------------
E|-----------------------------------------------------


E|--22-21-19-------------22b---------------------------
B|------------22-21-19---------------------------------
G|-----------------------------------------------------
D|-----------------------------------------------------
A|-----------------------------------------------------
E|-----------------------------------------------------


							|
E|-12p8----8--12p8----8--12p8----8--12p8----7-------	|
B|------10---------10---------10---------10---------	|
G|--------------------------------------------------	|
D|--------------------------------------------------	|
A|--------------------------------------------------	|
E|--------------------------------------------------	|
							|
E|-10p7---7-10p7---7--10p7---7-10p7---6-------------	|
B|------8--------8---------8--------8---------------	|
G|--------------------------------------------------	|
D|--------------------------------------------------	|  REPETIR 
A|--------------------------------------------------	|  2 VUELTAS	
E|--------------------------------------------------	|
							|
E|-10p6---6-10p6---6--10p6---6-10p6---5-------------	|
B|------8--------8---------8--------8---------------	|
G|--------------------------------------------------	|
D|--------------------------------------------------	|
A|--------------------------------------------------	|
E|--------------------------------------------------	|
							|
E|-9p5----5-9p5-----5-9p5----5-9p5---5-9p5---5------	|
B|--------------------------------------------------	|
G|-----9---------9--------9--------9-------9--------	|
D|--------------------------------------------------	|
A|--------------------------------------------------	|
E|--------------------------------------------------	|


E|-13p8----8-13p8----8--13p8----8--13p8----8--------
B|------10--------10---------10---------10----------
G|--------------------------------------------------
D|--------------------------------------------------
A|--------------------------------------------------
E|--------------------------------------------------

E|-15p10----10--15p10----10-17p12----12-17p12----12--
B|-------12-----------12----------14----------14-----
G|---------------------------------------------------
D|---------------------------------------------------
A|---------------------------------------------------
E|---------------------------------------------------


E|-20p15----15--20p15-20p15-----15--20p15--20p15----15----
B|-------17------------------17------------------17-------
G|--------------------------------------------------------
D|--------------------------------------------------------
A|--------------------------------------------------------
E|--------------------------------------------------------

E|-19p15----15--19p15-19p15-----15--19p15--19p15----15----
B|-------17------------------17------------------17-------
G|--------------------------------------------------------
D|--------------------------------------------------------
A|--------------------------------------------------------
E|--------------------------------------------------------

E|-18p15----15--18p15-18p15-----15--18p15--18p15----15----
B|-------17------------------17------------------17-------
G|--------------------------------------------------------
D|--------------------------------------------------------
A|--------------------------------------------------------
E|--------------------------------------------------------

E|-17p15----15--17p15-17p15-----15--17p15--17p15----15----
B|-------17------------------17------------------17-------
G|--------------------------------------------------------
D|--------------------------------------------------------
A|--------------------------------------------------------
E|--------------------------------------------------------

E|-13p8----8-13p8----8--13p8----8--13p8----8--------
B|------10--------10---------10---------10----------
G|--------------------------------------------------
D|--------------------------------------------------
A|--------------------------------------------------
E|--------------------------------------------------

E|-15p10----10--15p10----10-17p12----12-17p12----12--
B|-------12-----------12----------14----------14-----
G|---------------------------------------------------
D|---------------------------------------------------
A|---------------------------------------------------
E|---------------------------------------------------

E|--12--12--12--12-----------------
B|--15b-15b-15b-15b----------------
G|---------------------------------
D|---------------------------------
A|---------------------------------
E|---------------------------------

////////////////////////////////////////////////////77

POST SOLO


  X4
E|--------------------------------------------------------
B|--------------------------------------------------------
G|--------------------------------------------------------
D|--9--8--7----6-----5-------------5-------------5--------
A|--7--6--5----4-----3-------------5-------------5--------
E|-----------6----5-----4--0-0-0-0---0-0-0-0-0-0----0-0---


E|-------------------------------------
B|-------------------------------------
G|-------------------------------------
D|----------10--------------10---------
A|----------10--------------10---------
E|--8-8-8-8--8--8-8-8-8-8-8--8--8-8----


E|-------------------------------------
B|-------------------------------------
G|-------------------------------------
D|-----------9---------------9---------
A|-----------9---------------9---------
E|--7-7-7-7--7--7-7-7-7-7-7--7--7-7----


E|-------------------------------------
B|-------------------------------------
G|-------------------------------------
D|-----------8---------------8---------
A|-----------8---------------8---------
E|--6-6-6-6--6--6-6-6-6-6-6--6--6-6----


E|-------------------------------------
B|-------------------------------------
G|-------------------------------------
D|-----------7---------------7---------
A|-----------7---------------7---------
E|--5-5-5-5--5--5-5-5-5-5-5--5--5-5----


E|-------------------------------------
B|-------------------------------------
G|-------------------------------------
D|-----------3---------------3---------
A|-----------3---------------3---------
E|--1-1-1-1--1--1-1-1-1-1-1--1--1-1----

E|-------------------------------------
B|-------------------------------------
G|-------------------------------------
D|-----------5---------------8---------
A|-----------5---------------8---------
E|--3-3-3-3--3--3-3-6-6-6-6--6--6-6----


  X3
E|--------------------------------------------------------
B|--------------------------------------------------------
G|--------------------------------------------------------
D|--9--8--7----6-----5-------------5-------------5--------
A|--7--6--5----4-----3-------------5-------------5--------
E|-----------6----5-----4--0-0-0-0---0-0-0-0-0-0----0-0---


E|-----------------------------------
B|-----------------------------------
G|-----------------------------------
D|--9--8--7------5-------------------
A|--7--6--5------3-------------------
E|-----------6-----------------------

  X11					
E|---------------------------------	
B|---------------------------------
G|---------------------------------	
D|---------------------------------	
A|--7/8--------7/8-----------------	
E|--5/6--0--0--5/6--0--0--0--0-----	
					
					
E|-----------------------------------------	
B|-----------------------------------------	
G|-----------------------------------------	
D|-----------------------------------------	
A|--7/8--------7/8-------10--9-8-----10-9--	
E|--5/6--0--0--5/6--0--0--8--7-6------8-7--	


////////////////////////////////////////////////////

VERSO 3(IGUAL AL ANTERIOR)

//////////////////////////////////////////////////////////////

PRECORO (IGUAL AL ANTERIOR)

//////////////////////////////////////////////////////////////

CORO (IGUAL AL ANTERIOR)


//////////////////////////////////////////////////////////////


FINAL

  x4
E|-------------------------
B|-------------------------
G|-------------------------
D|-----------2-----5-------
A|--4--2--4--0--4--3-------
E|--2--0--2-----2----------



				|
E|-------------------------	|
B|-------------------------	|
G|-------------------------	|
D|-----------2-----5-------	|
A|--4--2--4--0--4--3-------	|
E|--2--0--2-----2----------	|
				|
E|-------------------------	|
B|-------------------------	|
G|-------------------------	|
D|-----------2-------------	|
A|--4--2--4--0--4--2-------	|
E|--2--0--2-----2--0-------	|


E|-----------------------------------------
B|-----------------------------------------
G|-----------------------------------------
D|-----------2-----5-X-X-5-X-X-5-X-X-5/4---
A|--4--2--4--0--4--3-X-X-3-X-X-3-X-X-3/2---
E|--2--0--2-----2--------------------------

E|--------------------------------------
B|--------------------------------------
G|--------------------------------------
D|-----------2--------------------------
A|--4--2--4--0--4--2--------------------
E|--2--0--2-----2--0---0-0-0-0-0-0-0-0--

E|-----------------------------------------
B|-----------------------------------------
G|-----------------------------------------
D|-----------2-----5-X-X-5-X-X-5-X-X-5/4---
A|--4--2--4--0--4--3-X-X-3-X-X-3-X-X-3/2---
E|--2--0--2-----2--------------------------

E|--------------------------------------
B|--------------------------------------
G|--------------------------------------
D|-----------2--------------------------
A|--4--2--4--0--4--2--------------------
E|--2--0--2-----2--0---0-0-0-0-0-0-0-0--