989 VISITAS

Show me how to live

Audioslave

            
                               


Intro
(4x)
E----------------------------------------------------------
B----------------------------------------------------------
G--7-------------------------------------------------------
D--7----2--------------------------------------------------
A--5----2--------------------------------------------------
D-(7)---2--------------------------------------------------
 
E----------------------------------------------------------
B----------------------------------------------------------
G----------------------------------------------------------
D--------2-------------------------------------------------
A------2----------------------------------0----------------
D--0-2-------x0---2--xx0---2---x7/8-7-x-x----2---2-5-0---0-
                                
E----------------------------------------------------------
B----------------------------------------------------------
G----------------------------------------------------------
D--------2-------------------------------------------------
A------2---------------------------------------------------
D--0-2-------x0---2--xx0---2-------------------------------

                         

1. And with the early dawn moving right along 
2. Built with stolen parts a telephone in my heart
3. And in the after birth on the quiet earth

E----------------------------------------------------------
B----------------------------------------------------------
G----------------------------------------------------------
D--------2-------------------------------------------------
A------2---------------------------------------------------
D--0-2-------x0---2--xx0---2-------------------------------

1. I couldn't buy an eyeful of sleep
2. Someone get me a priest
3. Let the stains remind you


1. And in the aching night under satellites
2. To put my mind to bed this ringing in my head
3. You thought you made a man you better think again
                          -> 2nd & 3rd time, leads to chorus
E----------------------------------------------------------
B----------------------------------------------------------
G----------------------------------------------------------
D--------2---------------------x---x---x--xx--xxx----------
A------2-----------------------x---x---x--xx--xxx----------
D--0-2-------x0---2--xx0---2---x---x---x--xx--xxx----------

1. I was not received -> 2nd VERSE
2. Is this a cure is or is this a disease -> CHORUS
3. Before my role defines you -> CHORUS (and then SOLO)

CHORUS (2x)

E----------------------------------------------------------
B----------------------------------------------------------
G----------------------------------------------------------
D--2---5------------0h2------------------------------------
A--2---5---------------------------------------------------
D--2---5--0-2p0h2p0-----0----------------------------------
 
  Nail in my hand
  from my creator
  you gave me life
  now show me how to live

SOLO

(8 bars)
  -3--3--3--3- (3rds), but done with guitar effects
 
E--777777777777--------------------------------------------
B--555555555555--------------------------------------------
G--444444444444--------------------------------------------
D----------------------------------------------------------
A----------------------------------------------------------
D----------------------------------------------------------

(1 bar)
E----------------------------------------------------------
B----------------------------------------------------------
G----------------------------------------------------------
D--5-------------------------------------------------------
A--5-------------------------------------------------------
D--5-------------------------------------------------------
 
PUENTE
(8x)
E----------------------------------------------------------
B----------------------------------------------------------
G--7-------------------------------------------------------
D--7----2--------------------------------------------------
A--5----2--------------------------------------------------
D-------2--------------------------------------------------


  And in you waiting hands I will land
  And roll right out of my skin
  And in your final hours I will stand
  Ready to begin
  Ready to begin
  Ready to begin
  Ready to begin

CHORUS (2x)

E----------------------------------------------------------
B----------------------------------------------------------
G----------------------------------------------------------
D--2---5-----------0h2-------------------------------------
A--2---5---------------------------------------------------
D--2---5---2p0h2p0-----0-----------------------------------
 
  Nail in my hand
  from my creator
  you gave me life
  now show me how to live

OUTRO

E----------------------------------------------------------
B----------------------------------------------------------
G----------------------------------------------------------
D--2--------------2----------------------------------------
A--2--------------2----------------------------------------
D--2--------------2----------------------------------------

  show me how to live 
  show me how to live 
  show me how to live 
  show me how to live