800 VISITAS

Sleep now in the fire (Riff)

Rage Against the Machine

            
                               



E|------------------| 
B|------------------| 
G|----------5b------| 
D|-7-7--5-7----7----|  
A|-0-0--0-0----0----| 
E|------------------| 
 
E|----------------------| 
B|-----7b-7b-7--5-------| 
G|-----7b-7b-7--5-------| 
D|-7-5------------7p5-7-| 
A|-0-0------------0-0-0-| 
E|----------------------|