1229 VISITAS

The pretender

Foo fighters

            
                               


INTRO


REPETIR X4


E|-----------7------------------------------|
B|--------10---10----------10---10---10-----|
G|------9---------9---------9----9----9-----|
D|---10-------------10-----10---10---10-----|
A|-0-------------------0-----------0--------|
E|-----------------------7----8-------------|


E|------------------------------0-----------|
B|---------10----------------10---10--------|
G|-------9-----------------9---------9------|
D|----10----------------10-------------10---|
A|-9-----------9b1-9-8----------------------|
E|------------------------------------------|



 Am9
Keep you in the dark
              F#m7(b5)  F7M
You know they all   pretend
 Am9
Keep you in the dark
          F#m7(b5)  F7M
And so it all    began



E|-0-0-2-0-3-0-5-0-0-0-2-0-3-0-5-----------------------|
B|-5-5-5-5-5-5-5-5-5-5-5-5-5-5-5-----------------------|
G|-----------------------------------------------------|
D|-----------------------------------------------------|
A|-----------------------------------------------------|
E|-----------------------------------------------------|



Am
   Send in your skeletons
                                F#m5+
Sing as their bones go marching in 
  F9
Again
Am
   They need you buried deep
                               
The secrets that you keep are 
F#m5+       F9        ( F5  G5 )
Ever ready, are you ready?

Am
   I'm finished making sense

Done pleading ignorance
       F#m5+  F9   ( F5  G5 )
That whole defense

Am
   Spinning infinity

Boy, the wheel is spinning me
      F#m5+         F9    ( F5  G5 )
It's never ending, never ending


  Same old story
E|-----------------------------------------------------|
B|-----------------------------------------------------|
G|-7-7-7-7-9-9-9-9-11-11-11-11-12-12-12-12-------------|
D|-----------------------------------------------------|
A|-5-5-5-5-7-7-7-7--9--9--9--9-10-10-10-10-------------|
E|-----------------------------------------------------|


CORO


  Am
What if I say 

I'm not like the others?
              
What if I say 
                     F#m5+
I'm not just another one of your plays?

You're the pretender
  F9
What if I say that 

I will never surrender?

  Am
What if I say 

I'm not like the others?
              
What if I say 
                     F#m5+
I'm not just another one of your plays?

You're the pretender
  F9
What if I say that 

I will never surrender?




E|------------------------------------------|
B|------------------------------------------|
G|------------------------------------------|
D|-2-2-4-2-5-2-7-2-2-2-4-2-5-2-7\-----------|
A|-0-0-0-0-0-0-0-0-0-0-0-0-0-0-0------------|
E|------------------------------------------|


VERSO



   In time, or so I'm told
                           F#m5+
I'm just another soul for sale
     F9  ( F5  G5 )
Oh, well
Am
   The page is out of print

We are not permanent
       F#m5+      F9   ( F5  G5 )
We're temporary, temporary


		Same old story
E|-----------------------------------------------------|
B|-----------------------------------------------------|
G|-7-7-7-7-9-9-9-9-11-11-11-11-12-12-12-12-------------|
D|-----------------------------------------------------|
A|-5-5-5-5-7-7-7-7--9--9--9--9-10-10-10-10-------------|
E|-----------------------------------------------------|


CORO

  Am
What if I say 

I'm not like the others?
              
What if I say 
                     F#m7(b5)
I'm not just another one of your plays?

You're the pretender
  F7M
What if I say that 

I will never surrender?

  Am
What if I say 

I'm not like the others?
              
What if I say 
                     F#m7(b5)
I'm not just another one of your plays?

You're the pretender
  F7M
What if I say that 
                   
I will never surrender?


E|-----------------------------------------------------|
B|-----------------------------------------------------|
G|-7-7-7-7-9-9-9-9-11-11-11-11-12-12-12-12-------------|
D|-----------------------------------------------------|
A|-5-5-5-5-7-7-7-7--9--9--9--9-10-10-10-10-------------|
E|-----------------------------------------------------|


INTERLUDE

  ==================X6=====================
E|-----------------------------------------|
B|-----------------------------------------|
G|-----------------------------------------|
D|-2-2-4-2-5-2-7-2---2-4-2-5-2-7\----------|
A|-0-0---0---0---0---0---0---0-------------|
E|-----------------------------------------|


  ==================X4=====================
E|------------------------------------------|
B|------------------------------------------|
G|------------------------------------------|
D|-10--10-9----7\5--x-----------------------|
A|--0-------0-------0-----------------------|
E|------------------------------------------|

  ==================X4=====================
E|------------------------------------------|
B|------------------------------------------|
G|------------------------------------------|
D|-12--12-10---9h10--x----------------------|
A|--0--------0-------0----------------------|
E|------------------------------------------|

  ==================X8=====================
E|------------------------------------------|
B|------------------------------------------|
G|--------12--14~---------------------------|
D|-14~-14-----------------------------------|
A|--0--------------0------------------------|
E|------------------------------------------|

I'm the voice inside your head
You refuse to hear
I'm the face that you have to face
Mirrorin' your stare
I'm what's left, I'm what's right
I'm the enemy
I'm the hand that'll take you down
Bring you to your knees
So, who are you? Yeah, who are you?
Yeah, who are you? Yeah, who are you?



 Am9                                F#m7(b5)
Keep you in the dark, you know they all 
    F7M
Pretend


CORO

  Am
What if I say 

I'm not like the others?
              
What if I say 
                     F#m7(b5)
I'm not just another one of your plays?

You're the pretender
  F7M
What if I say that 

I will never surrender?

  Am
What if I say 

I'm not like the others?
              
What if I say 
                     F#m7(b5)
I'm not just another one of your plays?

You're the pretender
  F7M
What if I say that 
                   
I will never surrender?



  Am
What if I say 

I'm not like the others?
              
What if I say 
                     F#m7(b5)
I'm not just another one of your plays?

You're the pretender
  F7M
What if I say that 

I will never surrender?

  Am
What if I say 

I'm not like the others?
              
What if I say 
                     F#m7(b5)
I'm not just another one of your plays?

You're the pretender
  F7M
What if I say that 
                   
I will never surrender?

E|-----------------------------------------------------|
B|-----------------------------------------------------|
G|-7-7-7-7-9-9-9-9-11-11-11-11-12-12-12-12-------------|
D|-----------------------------------------------------|
A|-5-5-5-5-7-7-7-7--9--9--9--9-10-10-10-10-------------|
E|-----------------------------------------------------|



FINAL


So, who are you? Yeah, who are you?

Yeah, who are you?



  ==================X2=====================
E|-----------------------------------------|
B|-----------------------------------------|
G|-----------------------------------------|
D|-2-2-4-2-5-2-7-2---2-4-2-5-2-7\----------|
A|-0-0---0---0---0---0---0---0-------------|
E|-----------------------------------------|


  ==================X2=====================
E|------------------------------------------|
B|------------------------------------------|
G|------------------------------------------|
D|-10--10-9----7\5--x-----------------------|
A|--0-------0-------0-----------------------|
E|------------------------------------------|

E|------------------------------------------|
B|-1-1----1-1-1-1---------------------------|
G|-2-2----2-2-2-2---------------------------|
D|-2-2----2-2-2-2---------------------------|
A|-0-0----0-0-0-0---------------------------|
E|------------------------------------------|