813 VISITAS

Three Little Birds

Bob Marley

            
                               


E|------------------------------------------
B|------------------------------------------
G|-------9-6--------------------------------  
D|-7-9-7-----9-7----------------------------
A|------------------------------------------
E|------------------------------------------

E|------------------------------------------
B|------------------------------------------
G|------------------------------------------
D|---7-7---7---7-7---7---------------------
A|-9-----9---9-----9----9--7-----------------
E|------------------------------------------

INTRO

(A x 4)
         A
Don't worry about a thing
             D                                A
Cause every little thing  gonna be all right

Sayin' don't worry about a thing
             D                                A
Cause every little thing  gonna be all right

A
Rise up this morning
              E                            A
Smile with rising sun, Three little birds
                 D                 A
It's by my doorstep, Sayin' sweet songs
                 E
of melodies pure and true
         D                         A
Sayin' this is a message to you uh uh



Don't worry about a thing
             D                                A
Cause every little thing  gonna be all right

Sayin' don't worry about a thing
             D                                A
Cause every little thing  gonna be all right


A
Rise up this morning
              E                            A
Smile with rising sun, Three little birds
                 D                 A
It's by my doorstep, Sayin' sweet songs
                 E
of melodies pure and true
         D                         A
Sayin' this is a message to you uh uh

Don't worry about a thing
             D                                A
Cause every little thing  gonna be all right

Sayin' don't worry about a thing
             D                                A
Cause every little thing  gonna be all right