1936 VISITAS

Zafar

La Vela Puerca

            
                               



INTRO


E|-----0-----0-----0-----0-----0-----0-----0-----0--
B|-----1-----1-----1-----1-----1-----1-----1-----1--
G|--------------------------------------------------
D|--------2-----------2-----------2-----------2-----
A|--0-----------0-----------0-----------0-----------
E|--------------------------------------------------



  X3

E|-----0-----0-----0-----0-----1-----1-----3-----3--
B|-----1-----1-----1-----1-----3-----3-----3-----3--
G|--------------------------------------------------
D|--------2-----------2-----0------0----------------
A|--0-----------0-----------------------------2-----
E|--------------------------------------3-----------


E|-----0-----0-----0-----0-----1---3--3------
B|-----1-----1-----1-----1-----3---3--3------
G|-----------------------------2---0--0------
D|--------2-----------2--------0---0--0------
A|--0-----------0------------------2--2------
E|---------------------------------3--3------



violin

E|----------------------------------------
B|----------------------------------------
G|-2-2---2-4-5-4---2-0-2------------------
D|------------------------2---------------
A|----------------------------------------
E|----------------------------------------

E|------------------------------------------------
B|------0-1-0-1-3--3/5---3--5-3-1-0---------------
G|----2------------------------------2------------
D|-------------------------------------2----0---5-
A|------------------------------------------------
E|------------------------------------------------



Am                     Dm               G
Soy de la ciudad con todo lo que ves
Am                     Dm               G
con su ruido, con su gente consume vejez
Am                     Dm               G
y no puedo evitar, el humo que entra hoy
Am                     Dm               G
pero igual sigo creciendo soy otro carbón
Am                     Dm               G
no voy a imaginar, la pena en los demás
Am                     Dm               G
compro aire y si es puro pago mucho más
Am                     Dm               G
no voy a tolerar, que ya no tengas fe
Am                     Dm               G
que se bajen los brazos que no haya lucidez.



Am       Dm       G
Me voy, volando por ahí
Am       Dm       G
y estoy, convencido de ir
Am       Dm       G
me voy, silbando y sin rencor
Am       Dm       G
y estoy, zafando del olor


Me encontré con la gente, que sabe valorar
que de turista en la capital han sabido vagar
y no encarado al fin, la cruda realidad
de respirar hollín, de llorar alquitrán
y empiezo a envejecer, sudando mi verdad
criado pa toser con mucha variedad
y a donde ir a parar cargando con mi olor
deberíamos andar desnudos pa sentirnos mejor


Me voy, volando por ahí
y estoy, convencido de ir
me voy, silbando y sin rencor
y estoy, zafando del olor



Soy de la ciudad con todo lo que ves
con su ruido, con su gente consume vejez
y no puedo evitar, el humo que entra hoy
pero igual sigo creciendo soy otro carbón
no voy a imaginar, la pena en los demás
compro aire y si es puro pago mucho más
no voy a tolerar, que ya no tengas fe
que se bajen los brazos que no haya lucidez.

Me voy, volando por ahí
y estoy, convencido de ir
me voy, silbando y sin rencor
y estoy, zafando del olor